ISO-10303-21;
HEADER;
FILE_DESCRIPTION((''),'2;1');
FILE_NAME('D-SCL','2011-04-13T',('kma'),(''),
'PRO/ENGINEER BY PARAMETRIC TECHNOLOGY CORPORATION, 2009220',
'PRO/ENGINEER BY PARAMETRIC TECHNOLOGY CORPORATION, 2009220','');
FILE_SCHEMA(('AUTOMOTIVE_DESIGN_CC2 { 1 2 10303 214 -1 1 5 2 }'));
ENDSEC;
DATA;
#1=DRAUGHTING_PRE_DEFINED_COLOUR('black');
#2=COLOUR_RGB('',0.E0,0.E0,6.6E-1);
#3=DRAUGHTING_PRE_DEFINED_COLOUR('blue');
#4=COLOUR_RGB('',0.E0,2.E-1,3.4902E-1);
#5=COLOUR_RGB('',0.E0,2.44078E-1,2.84275E-1);
#6=COLOUR_RGB('',0.E0,2.77412E-1,5.20706E-1);
#7=COLOUR_RGB('',0.E0,3.18706E-1,5.49843E-1);
#8=COLOUR_RGB('',0.E0,3.3E-1,0.E0);
#9=COLOUR_RGB('',0.E0,3.37216E-1,5.10039E-1);
#10=COLOUR_RGB('',0.E0,3.50549E-1,2.96627E-1);
#11=COLOUR_RGB('',0.E0,4.05176E-1,3.01843E-1);
#12=COLOUR_RGB('',0.E0,4.31255E-1,2.30784E-1);
#13=COLOUR_RGB('',0.E0,4.5E-1,0.E0);
#14=COLOUR_RGB('',0.E0,4.52549E-1,6.86314E-1);
#15=COLOUR_RGB('',0.E0,4.5098E-1,9.01961E-1);
#16=COLOUR_RGB('',0.E0,4.54863E-1,4.69098E-1);
#17=COLOUR_RGB('',0.E0,4.95725E-1,3.0698E-1);
#18=COLOUR_RGB('',0.E0,5.07647E-1,3.21647E-1);
#19=COLOUR_RGB('',0.E0,5.38706E-1,5.4902E-1);
#20=COLOUR_RGB('',0.E0,6.E-1,0.E0);
#21=COLOUR_RGB('',0.E0,8.E-1,0.E0);
#22=DRAUGHTING_PRE_DEFINED_COLOUR('green');
#23=COLOUR_RGB('',1.7333E-2,2.72824E-1,3.83725E-1);
#24=COLOUR_RGB('',1.9608E-2,1.5686E-2,1.1765E-2);
#25=COLOUR_RGB('',6.7E-2,6.7E-2,6.7E-2);
#26=COLOUR_RGB('',7.0588E-2,7.4902E-2,7.7922E-2);
#27=COLOUR_RGB('',7.8941E-2,1.92431E-1,3.29059E-1);
#28=COLOUR_RGB('',8.4588E-2,1.95529E-1,4.73451E-1);
#29=COLOUR_RGB('',9.0196E-2,3.68627E-1,1.33333E-1);
#30=COLOUR_RGB('',1.01E-1,1.98E-1,9.52E-1);
#31=COLOUR_RGB('',1.06E-1,8.16E-1,2.08E-1);
#32=COLOUR_RGB('',1.08392E-1,1.27412E-1,1.65922E-1);
#33=COLOUR_RGB('',1.2549E-1,1.17647E-1,5.29412E-1);
#34=COLOUR_RGB('',1.35216E-1,1.5502E-1,3.35882E-1);
#35=COLOUR_RGB('',1.42314E-1,2.02E-1,1.53412E-1);
#36=COLOUR_RGB('',1.4902E-1,1.17647E-1,2.3529E-2);
#37=COLOUR_RGB('',1.48824E-1,1.47804E-1,1.53765E-1);
#38=COLOUR_RGB('',1.77412E-1,2.9051E-1,4.29725E-1);
#39=COLOUR_RGB('',1.80471E-1,2.15922E-1,1.46039E-1);
#40=COLOUR_RGB('',1.88235E-1,2.70588E-1,2.78431E-1);
#41=COLOUR_RGB('',1.89333E-1,3.29961E-1,2.63294E-1);
#42=COLOUR_RGB('',1.92353E-1,1.84667E-1,1.25647E-1);
#43=COLOUR_RGB('',2.E-1,4.E-1,1.E0);
#44=COLOUR_RGB('',2.E-1,4.70588E-1,1.E0);
#45=COLOUR_RGB('',2.E-1,8.E-1,1.E0);
#46=COLOUR_RGB('',2.12627E-1,2.39098E-1,2.53843E-1);
#47=COLOUR_RGB('',2.19608E-1,2.31961E-1,1.96275E-1);
#48=COLOUR_RGB('',2.43137E-1,2.5098E-1,7.01961E-1);
#49=COLOUR_RGB('',2.44667E-1,5.22118E-1,4.88706E-1);
#50=COLOUR_RGB('',2.5E-1,2.5E-1,2.5E-1);
#51=COLOUR_RGB('',2.53294E-1,4.33137E-1,1.97216E-1);
#52=COLOUR_RGB('',2.58824E-1,2.07843E-1,0.E0);
#53=COLOUR_RGB('',2.66549E-1,2.5098E-1,1.84941E-1);
#54=COLOUR_RGB('',2.71686E-1,3.97686E-1,5.45098E-1);
#55=COLOUR_RGB('',2.78431E-1,2.78431E-1,2.78431E-1);
#56=COLOUR_RGB('',2.83608E-1,2.13137E-1,1.48118E-1);
#57=COLOUR_RGB('',2.86275E-1,3.60784E-1,3.68627E-1);
#58=COLOUR_RGB('',2.94118E-1,6.70588E-1,3.76471E-1);
#59=COLOUR_RGB('',3.05216E-1,3.16039E-1,3.41255E-1);
#60=COLOUR_RGB('',3.07804E-1,5.22118E-1,2.54314E-1);
#61=COLOUR_RGB('',3.10235E-1,2.32431E-1,1.74667E-1);
#62=COLOUR_RGB('',3.14E-1,7.4E-2,0.E0);
#63=COLOUR_RGB('',3.15765E-1,3.46078E-1,3.58706E-1);
#64=COLOUR_RGB('',3.31725E-1,3.12627E-1,2.57725E-1);
#65=COLOUR_RGB('',3.40667E-1,3.54275E-1,3.3298E-1);
#66=COLOUR_RGB('',3.40353E-1,3.64118E-1,3.6949E-1);
#67=COLOUR_RGB('',3.45373E-1,3.59882E-1,3.17294E-1);
#68=COLOUR_RGB('',3.44118E-1,4.44078E-1,2.29529E-1);
#69=COLOUR_RGB('',3.48431E-1,2.21412E-1,1.53294E-1);
#70=COLOUR_RGB('',3.4902E-1,2.90196E-1,1.76471E-1);
#71=COLOUR_RGB('',3.72549E-1,6.19608E-1,0.E0);
#72=COLOUR_RGB('',3.90157E-1,1.98157E-1,1.75059E-1);
#73=COLOUR_RGB('',4.E-1,1.45098E-1,0.E0);
#74=COLOUR_RGB('',4.E-1,2.39216E-1,1.80392E-1);
#75=COLOUR_RGB('',4.06824E-1,4.97843E-1,3.45569E-1);
#76=COLOUR_RGB('',4.09137E-1,2.56353E-1,1.44314E-1);
#77=COLOUR_RGB('',4.11765E-1,4.39216E-1,8.58824E-1);
#78=COLOUR_RGB('',4.14196E-1,7.0549E-2,1.17059E-1);
#79=COLOUR_RGB('',4.19608E-1,6.03922E-1,9.29412E-1);
#80=COLOUR_RGB('',4.24627E-1,4.12549E-1,3.82353E-1);
#81=COLOUR_RGB('',4.39216E-1,3.52941E-1,0.E0);
#82=COLOUR_RGB('',4.46941E-1,6.67294E-1,6.59843E-1);
#83=COLOUR_RGB('',4.47059E-1,8.E-1,5.21569E-1);
#84=COLOUR_RGB('',4.5098E-1,0.E0,1.80392E-1);
#85=COLOUR_RGB('',4.5098E-1,3.04118E-1,1.61725E-1);
#86=COLOUR_RGB('',4.5098E-1,3.13725E-1,1.33333E-1);
#87=COLOUR_RGB('',4.5098E-1,5.2549E-1,2.23529E-1);
#88=COLOUR_RGB('',4.53529E-1,7.23216E-1,7.08275E-1);
#89=COLOUR_RGB('',4.60353E-1,2.84078E-1,2.13569E-1);
#90=COLOUR_RGB('',4.60902E-1,3.84745E-1,2.48706E-1);
#91=COLOUR_RGB('',4.63E-1,4.43E-1,4.94E-1);
#92=COLOUR_RGB('',4.63255E-1,4.60235E-1,3.42471E-1);
#93=COLOUR_RGB('',4.74314E-1,4.97098E-1,4.47569E-1);
#94=COLOUR_RGB('',4.7902E-1,4.86275E-1,4.78431E-1);
#95=COLOUR_RGB('',4.94078E-1,3.05686E-1,1.58824E-1);
#96=COLOUR_RGB('',5.E-1,5.E-1,5.E-1);
#97=COLOUR_RGB('',5.01961E-1,4.5098E-1,3.64706E-1);
#98=COLOUR_RGB('',5.01961E-1,4.86275E-1,0.E0);
#99=COLOUR_RGB('',5.21569E-1,1.92157E-1,0.E0);
#100=COLOUR_RGB('',5.21569E-1,1.96078E-1,2.54902E-1);
#101=COLOUR_RGB('',5.22E-1,4.94E-1,4.86E-1);
#102=COLOUR_RGB('',5.26941E-1,6.E-3,9.0157E-2);
#103=COLOUR_RGB('',5.2549E-1,7.01961E-1,1.41176E-1);
#104=COLOUR_RGB('',5.41176E-1,5.92157E-1,6.E-1);
#105=COLOUR_RGB('',5.49216E-1,2.83765E-1,1.96157E-1);
#106=COLOUR_RGB('',5.60784E-1,2.23529E-1,0.E0);
#107=COLOUR_RGB('',5.63255E-1,5.31216E-1,4.25529E-1);
#108=COLOUR_RGB('',5.72824E-1,5.57216E-1,5.50824E-1);
#109=COLOUR_RGB('',5.87412E-1,6.13922E-1,6.30196E-1);
#110=COLOUR_RGB('',6.E-1,4.5098E-1,3.29412E-1);
#111=COLOUR_RGB('',6.E-1,7.88235E-1,1.E0);
#112=COLOUR_RGB('',6.08E-1,2.3E-2,7.73E-1);
#113=COLOUR_RGB('',6.12196E-1,5.12549E-1,5.60275E-1);
#114=COLOUR_RGB('',6.11765E-1,9.01961E-1,6.82353E-1);
#115=COLOUR_RGB('',6.18078E-1,8.3569E-2,9.702E-2);
#116=COLOUR_RGB('',6.22784E-1,8.6902E-2,1.11686E-1);
#117=COLOUR_RGB('',6.26863E-1,5.67098E-1,3.83843E-1);
#118=COLOUR_RGB('',6.27451E-1,6.39216E-1,5.84314E-1);
#119=COLOUR_RGB('',6.34902E-1,5.16471E-1,6.5882E-2);
#120=COLOUR_RGB('',6.35294E-1,7.01961E-1,6.07843E-1);
#121=COLOUR_RGB('',6.39216E-1,8.5098E-1,5.09804E-1);
#122=COLOUR_RGB('',6.41804E-1,5.64235E-1,4.6702E-1);
#123=COLOUR_RGB('',6.43137E-1,6.5098E-1,9.29412E-1);
#124=COLOUR_RGB('',6.47E-1,6.47E-1,6.47E-1);
#125=COLOUR_RGB('',6.5098E-1,3.13725E-1,0.E0);
#126=COLOUR_RGB('',6.58824E-1,3.45098E-1,4.07843E-1);
#127=COLOUR_RGB('',6.6098E-1,1.19333E-1,1.22745E-1);
#128=COLOUR_RGB('',6.62157E-1,1.76549E-1,2.17843E-1);
#129=COLOUR_RGB('',6.62706E-1,2.11255E-1,1.61529E-1);
#130=COLOUR_RGB('',6.74353E-1,6.83882E-1,6.51216E-1);
#131=COLOUR_RGB('',6.78431E-1,6.27451E-1,5.37255E-1);
#132=COLOUR_RGB('',6.78431E-1,6.5098E-1,5.29412E-1);
#133=COLOUR_RGB('',6.91529E-1,7.2863E-2,2.29725E-1);
#134=COLOUR_RGB('',7.01961E-1,5.05882E-1,0.E0);
#135=COLOUR_RGB('',7.16235E-1,5.66588E-1,2.87882E-1);
#136=COLOUR_RGB('',7.21569E-1,2.39216E-1,0.E0);
#137=COLOUR_RGB('',7.29412E-1,9.60784E-1,7.76471E-1);
#138=COLOUR_RGB('',7.45569E-1,6.7569E-2,6.4196E-2);
#139=COLOUR_RGB('',7.4902E-1,6.58824E-1,4.86275E-1);
#140=COLOUR_RGB('',7.5298E-1,2.08588E-1,4.52706E-1);
#141=COLOUR_RGB('',7.57E-1,0.E0,0.E0);
#142=COLOUR_RGB('',7.55451E-1,7.71804E-1,7.51882E-1);
#143=COLOUR_RGB('',7.56863E-1,8.39216E-1,8.15686E-1);
#144=COLOUR_RGB('',7.71569E-1,5.76667E-1,0.E0);
#145=COLOUR_RGB('',7.72549E-1,9.01961E-1,5.76471E-1);
#146=COLOUR_RGB('',7.76471E-1,8.E-1,7.21569E-1);
#147=COLOUR_RGB('',7.84196E-1,7.30824E-1,5.01137E-1);
#148=COLOUR_RGB('',7.84314E-1,8.11765E-1,8.03922E-1);
#149=COLOUR_RGB('',8.E-1,4.E-1,0.E0);
#150=COLOUR_RGB('',8.E-1,7.76471E-1,6.78431E-1);
#151=COLOUR_RGB('',8.E-1,8.E-1,8.E-1);
#152=COLOUR_RGB('',8.E-1,1.E0,1.E0);
#153=COLOUR_RGB('',8.10745E-1,2.19804E-1,2.91608E-1);
#154=COLOUR_RGB('',8.11059E-1,3.00588E-1,3.54706E-1);
#155=COLOUR_RGB('',8.09333E-1,6.93176E-1,5.04314E-1);
#156=COLOUR_RGB('',8.11765E-1,0.E0,3.56863E-1);
#157=COLOUR_RGB('',8.20471E-1,3.50627E-1,1.0102E-1);
#158=COLOUR_RGB('',8.19608E-1,7.96078E-1,0.E0);
#159=COLOUR_RGB('',8.21725E-1,6.78549E-1,4.18745E-1);
#160=COLOUR_RGB('',8.25216E-1,4.02941E-1,3.2098E-1);
#161=COLOUR_RGB('',8.44078E-1,8.3898E-1,7.9102E-1);
#162=COLOUR_RGB('',8.49961E-1,3.82078E-1,2.84275E-1);
#163=COLOUR_RGB('',8.70588E-1,0.E0,2.94118E-1);
#164=COLOUR_RGB('',8.72353E-1,6.05098E-1,6.41882E-1);
#165=COLOUR_RGB('',8.77216E-1,6.55176E-1,0.E0);
#166=COLOUR_RGB('',8.784E-1,9.49E-1,1.E0);
#167=COLOUR_RGB('',8.83922E-1,3.15843E-1,8.078E-3);
#168=COLOUR_RGB('',8.90196E-1,6.66667E-1,7.56863E-1);
#169=COLOUR_RGB('',8.93373E-1,5.99922E-1,0.E0);
#170=COLOUR_RGB('',8.9302E-1,6.44588E-1,0.E0);
#171=COLOUR_RGB('',9.02941E-1,5.68392E-1,0.E0);
#172=COLOUR_RGB('',9.01961E-1,8.27451E-1,5.84314E-1);
#173=COLOUR_RGB('',9.12471E-1,4.4651E-1,7.298E-2);
#174=COLOUR_RGB('',9.37E-1,8.51E-1,9.4E-2);
#175=COLOUR_RGB('',9.41176E-1,6.78431E-1,0.E0);
#176=COLOUR_RGB('',9.41176E-1,9.01961E-1,7.52941E-1);
#177=COLOUR_RGB('',9.53294E-1,7.37412E-1,0.E0);
#178=COLOUR_RGB('',9.62706E-1,6.75922E-1,0.E0);
#179=COLOUR_RGB('',9.68627E-1,7.96078E-1,6.98039E-1);
#180=COLOUR_RGB('',9.73804E-1,7.51608E-1,0.E0);
#181=DRAUGHTING_PRE_DEFINED_COLOUR('red');
#182=COLOUR_RGB('',1.E0,0.E0,2.E-1);
#183=COLOUR_RGB('',1.E0,0.E0,3.21569E-1);
#184=COLOUR_RGB('',1.E0,0.E0,4.E-1);
#185=COLOUR_RGB('',1.E0,0.E0,6.E-1);
#186=COLOUR_RGB('',1.E0,0.E0,8.E-1);
#187=COLOUR_RGB('',1.E0,2.E-1,0.E0);
#188=COLOUR_RGB('',1.E0,3.21569E-1,0.E0);
#189=COLOUR_RGB('',1.E0,4.E-1,0.E0);
#190=COLOUR_RGB('',1.E0,4.11765E-1,3.9216E-2);
#191=COLOUR_RGB('',1.E0,4.57E-1,0.E0);
#192=COLOUR_RGB('',1.E0,5.41176E-1,2.70588E-1);
#193=COLOUR_RGB('',1.E0,6.E-1,0.E0);
#194=COLOUR_RGB('',1.E0,6.36196E-1,0.E0);
#195=COLOUR_RGB('',1.E0,6.90196E-1,5.60784E-1);
#196=COLOUR_RGB('',1.E0,7.01961E-1,0.E0);
#197=COLOUR_RGB('',1.E0,7.15E-1,4.11E-1);
#198=COLOUR_RGB('',1.E0,8.E-1,0.E0);
#199=COLOUR_RGB('',1.E0,8.E-1,4.E-1);
#200=COLOUR_RGB('',1.E0,8.31373E-1,2.E-1);
#201=COLOUR_RGB('',1.E0,8.31373E-1,3.80392E-1);
#202=COLOUR_RGB('',1.E0,8.39216E-1,2.31373E-1);
#203=COLOUR_RGB('',1.E0,8.90196E-1,3.4902E-1);
#204=COLOUR_RGB('',1.E0,9.09804E-1,4.19608E-1);
#205=COLOUR_RGB('',1.E0,9.41176E-1,5.098E-2);
#206=COLOUR_RGB('',1.E0,9.43529E-1,8.27843E-1);
#207=COLOUR_RGB('',1.E0,9.88235E-1,5.098E-2);
#208=DRAUGHTING_PRE_DEFINED_COLOUR('yellow');
#209=COLOUR_RGB('',1.E0,1.E0,2.E-1);
#210=COLOUR_RGB('',1.E0,1.E0,2.11765E-1);
#211=COLOUR_RGB('',1.E0,1.E0,4.E-1);
#212=COLOUR_RGB('',1.E0,1.E0,4.90196E-1);
#213=COLOUR_RGB('',1.E0,1.E0,6.E-1);
#214=COLOUR_RGB('',1.E0,1.E0,8.E-1);
#215=DRAUGHTING_PRE_DEFINED_COLOUR('white');
#216=DIRECTION('',(0.E0,0.E0,-1.E0));
#217=VECTOR('',#216,9.1E0);
#218=CARTESIAN_POINT('',(0.E0,7.5E0,1.E-1));
#219=LINE('',#218,#217);
#220=DIRECTION('',(0.E0,0.E0,-1.E0));
#221=VECTOR('',#220,9.1E0);
#222=CARTESIAN_POINT('',(0.E0,-7.5E0,1.E-1));
#223=LINE('',#222,#221);
#224=CARTESIAN_POINT('',(0.E0,0.E0,1.E-1));
#225=DIRECTION('',(0.E0,0.E0,1.E0));
#226=DIRECTION('',(0.E0,1.E0,0.E0));
#227=AXIS2_PLACEMENT_3D('',#224,#225,#226);
#229=CARTESIAN_POINT('',(0.E0,0.E0,1.E-1));
#230=DIRECTION('',(0.E0,0.E0,-1.E0));
#231=DIRECTION('',(0.E0,1.E0,0.E0));
#232=AXIS2_PLACEMENT_3D('',#229,#230,#231);
#234=CARTESIAN_POINT('',(0.E0,0.E0,-9.E0));
#235=DIRECTION('',(0.E0,0.E0,-1.E0));
#236=DIRECTION('',(0.E0,1.E0,0.E0));
#237=AXIS2_PLACEMENT_3D('',#234,#235,#236);
#239=CARTESIAN_POINT('',(0.E0,0.E0,-9.E0));
#240=DIRECTION('',(0.E0,0.E0,1.E0));
#241=DIRECTION('',(0.E0,1.E0,0.E0));
#242=AXIS2_PLACEMENT_3D('',#239,#240,#241);
#244=CARTESIAN_POINT('',(0.E0,0.E0,-3.E-1));
#245=DIRECTION('',(0.E0,0.E0,-1.E0));
#246=DIRECTION('',(0.E0,-1.E0,0.E0));
#247=AXIS2_PLACEMENT_3D('',#244,#245,#246);
#249=DIRECTION('',(-2.190168850914E-14,0.E0,1.E0));
#250=VECTOR('',#249,8.7E0);
#251=CARTESIAN_POINT('',(0.E0,-9.1E0,-9.E0));
#252=LINE('',#251,#250);
#253=CARTESIAN_POINT('',(0.E0,0.E0,-9.E0));
#254=DIRECTION('',(0.E0,0.E0,1.E0));
#255=DIRECTION('',(0.E0,1.E0,0.E0));
#256=AXIS2_PLACEMENT_3D('',#253,#254,#255);
#258=DIRECTION('',(2.151494365735E-14,0.E0,1.E0));
#259=VECTOR('',#258,8.7E0);
#260=CARTESIAN_POINT('',(0.E0,9.1E0,-9.E0));
#261=LINE('',#260,#259);
#262=CARTESIAN_POINT('',(0.E0,-9.4E0,-3.E-1));
#263=DIRECTION('',(-1.E0,0.E0,0.E0));
#264=DIRECTION('',(0.E0,1.776356839400E-14,1.E0));
#265=AXIS2_PLACEMENT_3D('',#262,#263,#264);
#267=CARTESIAN_POINT('',(0.E0,0.E0,0.E0));
#268=DIRECTION('',(0.E0,0.E0,-1.E0));
#269=DIRECTION('',(0.E0,-1.E0,0.E0));
#270=AXIS2_PLACEMENT_3D('',#267,#268,#269);
#272=CARTESIAN_POINT('',(0.E0,0.E0,0.E0));
#273=DIRECTION('',(0.E0,0.E0,-1.E0));
#274=DIRECTION('',(0.E0,1.E0,0.E0));
#275=AXIS2_PLACEMENT_3D('',#272,#273,#274);
#277=DIRECTION('',(0.E0,0.E0,1.E0));
#278=VECTOR('',#277,4.1E0);
#279=CARTESIAN_POINT('',(0.E0,1.185E1,0.E0));
#280=LINE('',#279,#278);
#281=DIRECTION('',(0.E0,0.E0,1.E0));
#282=VECTOR('',#281,4.1E0);
#283=CARTESIAN_POINT('',(0.E0,-1.185E1,0.E0));
#284=LINE('',#283,#282);
#285=CARTESIAN_POINT('',(0.E0,0.E0,0.E0));
#286=DIRECTION('',(0.E0,0.E0,1.E0));
#287=DIRECTION('',(0.E0,1.E0,0.E0));
#288=AXIS2_PLACEMENT_3D('',#285,#286,#287);
#290=CARTESIAN_POINT('',(0.E0,0.E0,0.E0));
#291=DIRECTION('',(0.E0,0.E0,-1.E0));
#292=DIRECTION('',(0.E0,1.E0,0.E0));
#293=AXIS2_PLACEMENT_3D('',#290,#291,#292);
#295=CARTESIAN_POINT('',(0.E0,0.E0,4.1E0));
#296=DIRECTION('',(0.E0,0.E0,1.E0));
#297=DIRECTION('',(0.E0,1.E0,0.E0));
#298=AXIS2_PLACEMENT_3D('',#295,#296,#297);
#300=CARTESIAN_POINT('',(0.E0,0.E0,4.1E0));
#301=DIRECTION('',(0.E0,0.E0,-1.E0));
#302=DIRECTION('',(0.E0,1.E0,0.E0));
#303=AXIS2_PLACEMENT_3D('',#300,#301,#302);
#305=CARTESIAN_POINT('',(0.E0,9.4E0,-3.E-1));
#306=DIRECTION('',(1.E0,0.E0,0.E0));
#307=DIRECTION('',(0.E0,-2.368475785867E-14,1.E0));
#308=AXIS2_PLACEMENT_3D('',#305,#306,#307);
#310=CARTESIAN_POINT('',(0.E0,0.E0,-3.E-1));
#311=DIRECTION('',(0.E0,0.E0,-1.E0));
#312=DIRECTION('',(0.E0,1.E0,0.E0));
#313=AXIS2_PLACEMENT_3D('',#310,#311,#312);
#315=CARTESIAN_POINT('',(0.E0,0.E0,-9.E0));
#316=DIRECTION('',(0.E0,0.E0,-1.E0));
#317=DIRECTION('',(0.E0,1.E0,0.E0));
#318=AXIS2_PLACEMENT_3D('',#315,#316,#317);
#320=CARTESIAN_POINT('',(0.E0,7.5E0,1.E-1));
#321=CARTESIAN_POINT('',(0.E0,7.5E0,-9.E0));
#322=VERTEX_POINT('',#320);
#323=VERTEX_POINT('',#321);
#324=CARTESIAN_POINT('',(0.E0,1.185E1,0.E0));
#325=CARTESIAN_POINT('',(0.E0,1.185E1,4.1E0));
#326=VERTEX_POINT('',#324);
#327=VERTEX_POINT('',#325);
#328=CARTESIAN_POINT('',(0.E0,-7.5E0,1.E-1));
#329=CARTESIAN_POINT('',(0.E0,-7.5E0,-9.E0));
#330=VERTEX_POINT('',#328);
#331=VERTEX_POINT('',#329);
#332=CARTESIAN_POINT('',(0.E0,-1.185E1,0.E0));
#333=CARTESIAN_POINT('',(0.E0,-1.185E1,4.1E0));
#334=VERTEX_POINT('',#332);
#335=VERTEX_POINT('',#333);
#336=CARTESIAN_POINT('',(0.E0,9.1E0,-9.E0));
#337=CARTESIAN_POINT('',(0.E0,-9.1E0,-9.E0));
#338=VERTEX_POINT('',#336);
#339=VERTEX_POINT('',#337);
#340=CARTESIAN_POINT('',(0.E0,-9.4E0,0.E0));
#341=CARTESIAN_POINT('',(0.E0,9.4E0,0.E0));
#342=VERTEX_POINT('',#340);
#343=VERTEX_POINT('',#341);
#344=CARTESIAN_POINT('',(0.E0,-9.1E0,-3.E-1));
#345=CARTESIAN_POINT('',(0.E0,9.1E0,-3.E-1));
#346=VERTEX_POINT('',#344);
#347=VERTEX_POINT('',#345);
#348=CARTESIAN_POINT('',(0.E0,0.E0,1.E-1));
#349=DIRECTION('',(0.E0,0.E0,-1.E0));
#350=DIRECTION('',(0.E0,-1.E0,0.E0));
#351=AXIS2_PLACEMENT_3D('',#348,#349,#350);
#352=PLANE('',#351);
#354=ORIENTED_EDGE('',*,*,#353,.T.);
#356=ORIENTED_EDGE('',*,*,#355,.F.);
#357=EDGE_LOOP('',(#354,#356));
#358=FACE_OUTER_BOUND('',#357,.F.);
#359=ADVANCED_FACE('',(#358),#352,.T.);
#360=CARTESIAN_POINT('',(0.E0,0.E0,4.755E0));
#361=DIRECTION('',(0.E0,0.E0,-1.E0));
#362=DIRECTION('',(0.E0,-1.E0,0.E0));
#363=AXIS2_PLACEMENT_3D('',#360,#361,#362);
#364=CYLINDRICAL_SURFACE('',#363,7.5E0);
#366=ORIENTED_EDGE('',*,*,#365,.T.);
#368=ORIENTED_EDGE('',*,*,#367,.T.);
#370=ORIENTED_EDGE('',*,*,#369,.F.);
#371=ORIENTED_EDGE('',*,*,#353,.F.);
#372=EDGE_LOOP('',(#366,#368,#370,#371));
#373=FACE_OUTER_BOUND('',#372,.F.);
#374=ADVANCED_FACE('',(#373),#364,.F.);
#375=CARTESIAN_POINT('',(0.E0,0.E0,4.755E0));
#376=DIRECTION('',(0.E0,0.E0,-1.E0));
#377=DIRECTION('',(0.E0,-1.E0,0.E0));
#378=AXIS2_PLACEMENT_3D('',#375,#376,#377);
#379=CYLINDRICAL_SURFACE('',#378,7.5E0);
#380=ORIENTED_EDGE('',*,*,#365,.F.);
#381=ORIENTED_EDGE('',*,*,#355,.T.);
#382=ORIENTED_EDGE('',*,*,#369,.T.);
#384=ORIENTED_EDGE('',*,*,#383,.F.);
#385=EDGE_LOOP('',(#380,#381,#382,#384));
#386=FACE_OUTER_BOUND('',#385,.F.);
#387=ADVANCED_FACE('',(#386),#379,.F.);
#388=CARTESIAN_POINT('',(0.E0,0.E0,-9.E0));
#389=DIRECTION('',(0.E0,0.E0,-1.E0));
#390=DIRECTION('',(0.E0,-1.E0,0.E0));
#391=AXIS2_PLACEMENT_3D('',#388,#389,#390);
#392=PLANE('',#391);
#394=ORIENTED_EDGE('',*,*,#393,.T.);
#396=ORIENTED_EDGE('',*,*,#395,.F.);
#397=EDGE_LOOP('',(#394,#396));
#398=FACE_OUTER_BOUND('',#397,.F.);
#399=ORIENTED_EDGE('',*,*,#383,.T.);
#400=ORIENTED_EDGE('',*,*,#367,.F.);
#401=EDGE_LOOP('',(#399,#400));
#402=FACE_BOUND('',#401,.F.);
#403=ADVANCED_FACE('',(#398,#402),#392,.T.);
#404=CARTESIAN_POINT('',(0.E0,0.E0,4.755E0));
#405=DIRECTION('',(0.E0,0.E0,-1.E0));
#406=DIRECTION('',(0.E0,-1.E0,0.E0));
#407=AXIS2_PLACEMENT_3D('',#404,#405,#406);
#408=CYLINDRICAL_SURFACE('',#407,9.1E0);
#410=ORIENTED_EDGE('',*,*,#409,.F.);
#412=ORIENTED_EDGE('',*,*,#411,.F.);
#413=ORIENTED_EDGE('',*,*,#393,.F.);
#415=ORIENTED_EDGE('',*,*,#414,.T.);
#416=EDGE_LOOP('',(#410,#412,#413,#415));
#417=FACE_OUTER_BOUND('',#416,.F.);
#418=ADVANCED_FACE('',(#417),#408,.T.);
#419=CARTESIAN_POINT('',(0.E0,0.E0,-3.E-1));
#420=DIRECTION('',(0.E0,0.E0,-1.E0));
#421=DIRECTION('',(6.080478153920E-3,-9.999815137218E-1,0.E0));
#422=AXIS2_PLACEMENT_3D('',#419,#420,#421);
#423=TOROIDAL_SURFACE('',#422,9.4E0,3.E-1);
#425=ORIENTED_EDGE('',*,*,#424,.F.);
#427=ORIENTED_EDGE('',*,*,#426,.T.);
#428=ORIENTED_EDGE('',*,*,#409,.T.);
#430=ORIENTED_EDGE('',*,*,#429,.F.);
#431=EDGE_LOOP('',(#425,#427,#428,#430));
#432=FACE_OUTER_BOUND('',#431,.F.);
#433=ADVANCED_FACE('',(#432),#423,.F.);
#434=CARTESIAN_POINT('',(0.E0,0.E0,0.E0));
#435=DIRECTION('',(0.E0,0.E0,-1.E0));
#436=DIRECTION('',(0.E0,-1.E0,0.E0));
#437=AXIS2_PLACEMENT_3D('',#434,#435,#436);
#438=PLANE('',#437);
#440=ORIENTED_EDGE('',*,*,#439,.T.);
#442=ORIENTED_EDGE('',*,*,#441,.F.);
#443=EDGE_LOOP('',(#440,#442));
#444=FACE_OUTER_BOUND('',#443,.F.);
#445=ORIENTED_EDGE('',*,*,#424,.T.);
#447=ORIENTED_EDGE('',*,*,#446,.T.);
#448=EDGE_LOOP('',(#445,#447));
#449=FACE_BOUND('',#448,.F.);
#450=ADVANCED_FACE('',(#444,#449),#438,.T.);
#451=CARTESIAN_POINT('',(0.E0,0.E0,4.755E0));
#452=DIRECTION('',(0.E0,0.E0,-1.E0));
#453=DIRECTION('',(0.E0,-1.E0,0.E0));
#454=AXIS2_PLACEMENT_3D('',#451,#452,#453);
#455=CYLINDRICAL_SURFACE('',#454,1.185E1);
#457=ORIENTED_EDGE('',*,*,#456,.T.);
#459=ORIENTED_EDGE('',*,*,#458,.T.);
#461=ORIENTED_EDGE('',*,*,#460,.F.);
#462=ORIENTED_EDGE('',*,*,#439,.F.);
#463=EDGE_LOOP('',(#457,#459,#461,#462));
#464=FACE_OUTER_BOUND('',#463,.F.);
#465=ADVANCED_FACE('',(#464),#455,.T.);
#466=CARTESIAN_POINT('',(0.E0,0.E0,4.755E0));
#467=DIRECTION('',(0.E0,0.E0,-1.E0));
#468=DIRECTION('',(0.E0,-1.E0,0.E0));
#469=AXIS2_PLACEMENT_3D('',#466,#467,#468);
#470=CYLINDRICAL_SURFACE('',#469,1.185E1);
#471=ORIENTED_EDGE('',*,*,#456,.F.);
#472=ORIENTED_EDGE('',*,*,#441,.T.);
#473=ORIENTED_EDGE('',*,*,#460,.T.);
#475=ORIENTED_EDGE('',*,*,#474,.F.);
#476=EDGE_LOOP('',(#471,#472,#473,#475));
#477=FACE_OUTER_BOUND('',#476,.F.);
#478=ADVANCED_FACE('',(#477),#470,.T.);
#479=CARTESIAN_POINT('',(0.E0,0.E0,4.1E0));
#480=DIRECTION('',(0.E0,0.E0,-1.E0));
#481=DIRECTION('',(0.E0,-1.E0,0.E0));
#482=AXIS2_PLACEMENT_3D('',#479,#480,#481);
#483=PLANE('',#482);
#484=ORIENTED_EDGE('',*,*,#458,.F.);
#485=ORIENTED_EDGE('',*,*,#474,.T.);
#486=EDGE_LOOP('',(#484,#485));
#487=FACE_OUTER_BOUND('',#486,.F.);
#488=ADVANCED_FACE('',(#487),#483,.F.);
#489=CARTESIAN_POINT('',(0.E0,0.E0,-3.E-1));
#490=DIRECTION('',(0.E0,0.E0,-1.E0));
#491=DIRECTION('',(-6.080478153920E-3,9.999815137218E-1,0.E0));
#492=AXIS2_PLACEMENT_3D('',#489,#490,#491);
#493=TOROIDAL_SURFACE('',#492,9.4E0,3.E-1);
#494=ORIENTED_EDGE('',*,*,#446,.F.);
#495=ORIENTED_EDGE('',*,*,#429,.T.);
#497=ORIENTED_EDGE('',*,*,#496,.T.);
#498=ORIENTED_EDGE('',*,*,#426,.F.);
#499=EDGE_LOOP('',(#494,#495,#497,#498));
#500=FACE_OUTER_BOUND('',#499,.F.);
#501=ADVANCED_FACE('',(#500),#493,.F.);
#502=CARTESIAN_POINT('',(0.E0,0.E0,4.755E0));
#503=DIRECTION('',(0.E0,0.E0,-1.E0));
#504=DIRECTION('',(0.E0,-1.E0,0.E0));
#505=AXIS2_PLACEMENT_3D('',#502,#503,#504);
#506=CYLINDRICAL_SURFACE('',#505,9.1E0);
#507=ORIENTED_EDGE('',*,*,#496,.F.);
#508=ORIENTED_EDGE('',*,*,#414,.F.);
#509=ORIENTED_EDGE('',*,*,#395,.T.);
#510=ORIENTED_EDGE('',*,*,#411,.T.);
#511=EDGE_LOOP('',(#507,#508,#509,#510));
#512=FACE_OUTER_BOUND('',#511,.F.);
#513=ADVANCED_FACE('',(#512),#506,.T.);
#514=CLOSED_SHELL('',(#359,#374,#387,#403,#418,#433,#450,#465,#478,#488,#501,
#513));
#515=MANIFOLD_SOLID_BREP('',#514);
#516=(LENGTH_UNIT()NAMED_UNIT(*)SI_UNIT(.MILLI.,.METRE.));
#517=DIMENSIONAL_EXPONENTS(0.E0,0.E0,0.E0,0.E0,0.E0,0.E0,0.E0);
#518=(NAMED_UNIT(*)PLANE_ANGLE_UNIT()SI_UNIT($,.RADIAN.));
#519=PLANE_ANGLE_MEASURE_WITH_UNIT(PLANE_ANGLE_MEASURE(1.745329251994E-2),#518);
#520=(CONVERSION_BASED_UNIT('DEGREE',#519)NAMED_UNIT(#517)PLANE_ANGLE_UNIT());
#521=(NAMED_UNIT(*)SI_UNIT($,.STERADIAN.)SOLID_ANGLE_UNIT());
#522=UNCERTAINTY_MEASURE_WITH_UNIT(LENGTH_MEASURE(3.598453004934E-3),#516,
'distance_accuracy_value',
'Maximum model space distance between geometric entities at asserted connectivities');
#523=(GEOMETRIC_REPRESENTATION_CONTEXT(3)GLOBAL_UNCERTAINTY_ASSIGNED_CONTEXT((
#522))GLOBAL_UNIT_ASSIGNED_CONTEXT((#516,#520,#521))REPRESENTATION_CONTEXT
('ID1','3'));
#525=APPLICATION_CONTEXT('automotive_design');
#526=APPLICATION_PROTOCOL_DEFINITION('draft international standard',
'automotive_design',1998,#525);
#527=PRODUCT_DEFINITION_CONTEXT('part definition',#525,'design');
#528=PRODUCT_CONTEXT('',#525,'mechanical');
#529=PRODUCT('D-SCL','D-SCL','NOT SPECIFIED',(#528));
#530=PRODUCT_DEFINITION_FORMATION_WITH_SPECIFIED_SOURCE('1','LAST_VERSION',#529,
.MADE.);
#534=PRODUCT_TYPE('part','',(#529));
#228=CIRCLE('',#227,7.5E0);
#233=CIRCLE('',#232,7.5E0);
#238=CIRCLE('',#237,7.5E0);
#243=CIRCLE('',#242,7.5E0);
#248=CIRCLE('',#247,9.1E0);
#257=CIRCLE('',#256,9.1E0);
#266=CIRCLE('',#265,3.E-1);
#271=CIRCLE('',#270,9.4E0);
#276=CIRCLE('',#275,9.4E0);
#289=CIRCLE('',#288,1.185E1);
#294=CIRCLE('',#293,1.185E1);
#299=CIRCLE('',#298,1.185E1);
#304=CIRCLE('',#303,1.185E1);
#309=CIRCLE('',#308,3.E-1);
#314=CIRCLE('',#313,9.1E0);
#319=CIRCLE('',#318,9.1E0);
#353=EDGE_CURVE('',#322,#330,#228,.T.);
#355=EDGE_CURVE('',#322,#330,#233,.T.);
#365=EDGE_CURVE('',#322,#323,#219,.T.);
#367=EDGE_CURVE('',#323,#331,#243,.T.);
#369=EDGE_CURVE('',#330,#331,#223,.T.);
#383=EDGE_CURVE('',#323,#331,#238,.T.);
#393=EDGE_CURVE('',#338,#339,#257,.T.);
#395=EDGE_CURVE('',#338,#339,#319,.T.);
#409=EDGE_CURVE('',#346,#347,#248,.T.);
#411=EDGE_CURVE('',#339,#346,#252,.T.);
#414=EDGE_CURVE('',#338,#347,#261,.T.);
#424=EDGE_CURVE('',#342,#343,#271,.T.);
#426=EDGE_CURVE('',#342,#346,#266,.T.);
#429=EDGE_CURVE('',#343,#347,#309,.T.);
#439=EDGE_CURVE('',#326,#334,#289,.T.);
#441=EDGE_CURVE('',#326,#334,#294,.T.);
#446=EDGE_CURVE('',#343,#342,#276,.T.);
#456=EDGE_CURVE('',#326,#327,#280,.T.);
#458=EDGE_CURVE('',#327,#335,#299,.T.);
#460=EDGE_CURVE('',#334,#335,#284,.T.);
#474=EDGE_CURVE('',#327,#335,#304,.T.);
#496=EDGE_CURVE('',#347,#346,#314,.T.);
#524=ADVANCED_BREP_SHAPE_REPRESENTATION('',(#515),#523);
#531=PRODUCT_DEFINITION('part definition','',#530,#527);
#532=PRODUCT_DEFINITION_SHAPE('','SHAPE FOR D-SCL.',#531);
#533=SHAPE_DEFINITION_REPRESENTATION(#532,#524);
ENDSEC;
END-ISO-10303-21;
