  0
SECTION
  2
HEADER
  9
$ACADVER
  1
AC1009
  9
$INSBASE
 10
0.0
 20
0.0
 30
0.0
  9
$EXTMIN
 10
-0.025634
 20
-0.018127
 30
0.0
  9
$EXTMAX
 10
420.025638
 20
297.018129
 30
0.0
  9
$LIMMIN
 10
0.0
 20
0.0
  9
$LIMMAX
 10
420.0
 20
297.0
  9
$ORTHOMODE
 70
     1
  9
$REGENMODE
 70
     1
  9
$FILLMODE
 70
     1
  9
$QTEXTMODE
 70
     0
  9
$MIRRTEXT
 70
     1
  9
$DRAGMODE
 70
     2
  9
$LTSCALE
 40
5.0
  9
$OSMODE
 70
    37
  9
$ATTMODE
 70
     1
  9
$TEXTSIZE
 40
3.5
  9
$TRACEWID
 40
26.0
  9
$TEXTSTYLE
  7
STANDARD
  9
$CLAYER
  8
BEM1
  9
$CELTYPE
  6
BYLAYER
  9
$CECOLOR
 62
   256
  9
$DIMSCALE
 40
0.0
  9
$DIMASZ
 40
3.5
  9
$DIMEXO
 40
0.8
  9
$DIMDLI
 40
8.0
  9
$DIMRND
 40
0.0
  9
$DIMDLE
 40
0.0
  9
$DIMEXE
 40
0.8
  9
$DIMTP
 40
0.0
  9
$DIMTM
 40
0.0
  9
$DIMTXT
 40
3.5
  9
$DIMCEN
 40
1.5
  9
$DIMTSZ
 40
0.0
  9
$DIMTOL
 70
     0
  9
$DIMLIM
 70
     0
  9
$DIMTIH
 70
     0
  9
$DIMTOH
 70
     0
  9
$DIMSE1
 70
     0
  9
$DIMSE2
 70
     0
  9
$DIMTAD
 70
     1
  9
$DIMZIN
 70
     0
  9
$DIMBLK
  1

  9
$DIMASO
 70
     0
  9
$DIMSHO
 70
     0
  9
$DIMPOST
  1

  9
$DIMAPOST
  1

  9
$DIMALT
 70
     1
  9
$DIMALTD
 70
     3
  9
$DIMALTF
 40
0.03937
  9
$DIMLFAC
 40
0.5
  9
$DIMTOFL
 70
     0
  9
$DIMTVP
 40
0.0
  9
$DIMTIX
 70
     0
  9
$DIMSOXD
 70
     0
  9
$DIMSAH
 70
     0
  9
$DIMBLK1
  1

  9
$DIMBLK2
  1

  9
$DIMSTYLE
  2
STANDARD
  9
$DIMCLRD
 70
     4
  9
$DIMCLRE
 70
     4
  9
$DIMCLRT
 70
     3
  9
$DIMTFAC
 40
1.0
  9
$DIMGAP
 40
1.0
  9
$LUNITS
 70
     2
  9
$LUPREC
 70
     2
  9
$SKETCHINC
 40
1.0
  9
$FILLETRAD
 40
0.0
  9
$AUNITS
 70
     0
  9
$AUPREC
 70
     0
  9
$MENU
  1
acad
  9
$ELEVATION
 40
0.0
  9
$PELEVATION
 40
0.0
  9
$THICKNESS
 40
0.0
  9
$LIMCHECK
 70
     0
  9
$BLIPMODE
 70
     0
  9
$CHAMFERA
 40
0.0
  9
$CHAMFERB
 40
0.0
  9
$SKPOLY
 70
     0
  9
$TDCREATE
 40
2449225.361041
  9
$TDUPDATE
 40
2451824.400026
  9
$TDINDWG
 40
0.185594
  9
$TDUSRTIMER
 40
0.185594
  9
$USRTIMER
 70
     1
  9
$ANGBASE
 50
0.0
  9
$ANGDIR
 70
     0
  9
$PDMODE
 70
     0
  9
$PDSIZE
 40
0.0
  9
$PLINEWID
 40
0.0
  9
$COORDS
 70
     2
  9
$SPLFRAME
 70
     0
  9
$SPLINETYPE
 70
     6
  9
$SPLINESEGS
 70
     8
  9
$ATTDIA
 70
     1
  9
$ATTREQ
 70
     1
  9
$HANDLING
 70
     1
  9
$HANDSEED
  5
1067
  9
$SURFTAB1
 70
     6
  9
$SURFTAB2
 70
     6
  9
$SURFTYPE
 70
     6
  9
$SURFU
 70
     6
  9
$SURFV
 70
     6
  9
$UCSNAME
  2

  9
$UCSORG
 10
0.0
 20
0.0
 30
0.0
  9
$UCSXDIR
 10
1.0
 20
0.0
 30
0.0
  9
$UCSYDIR
 10
0.0
 20
1.0
 30
0.0
  9
$PUCSNAME
  2

  9
$PUCSORG
 10
0.0
 20
0.0
 30
0.0
  9
$PUCSXDIR
 10
1.0
 20
0.0
 30
0.0
  9
$PUCSYDIR
 10
0.0
 20
1.0
 30
0.0
  9
$USERI1
 70
     0
  9
$USERI2
 70
     0
  9
$USERI3
 70
     0
  9
$USERI4
 70
     0
  9
$USERI5
 70
     0
  9
$USERR1
 40
0.0
  9
$USERR2
 40
0.0
  9
$USERR3
 40
0.0
  9
$USERR4
 40
0.0
  9
$USERR5
 40
0.0
  9
$WORLDVIEW
 70
     1
  9
$SHADEDGE
 70
     3
  9
$SHADEDIF
 70
    70
  9
$TILEMODE
 70
     1
  9
$MAXACTVP
 70
    16
  9
$PLIMCHECK
 70
     0
  9
$PEXTMIN
 10
1.000000E+020
 20
1.000000E+020
 30
1.000000E+020
  9
$PEXTMAX
 10
-1.000000E+020
 20
-1.000000E+020
 30
-1.000000E+020
  9
$PLIMMIN
 10
0.0
 20
0.0
  9
$PLIMMAX
 10
12.0
 20
9.0
  9
$UNITMODE
 70
     0
  9
$VISRETAIN
 70
     0
  9
$PLINEGEN
 70
     0
  9
$PSLTSCALE
 70
     0
  0
ENDSEC
  0
SECTION
  2
TABLES
  0
TABLE
  2
VPORT
 70
     2
  0
VPORT
  2
*ACTIVE
 70
     0
 10
0.0
 20
0.0
 11
1.0
 21
1.0
 12
210.000002
 22
148.500001
 13
0.0
 23
0.0
 14
1.0
 24
1.0
 15
2.0
 25
2.0
 16
0.0
 26
0.0
 36
1.0
 17
0.0
 27
0.0
 37
0.0
 40
299.261247
 41
1.525
 42
50.0
 43
0.0
 44
0.0
 50
0.0
 51
0.0
 71
     0
 72
  1000
 73
     1
 74
     0
 75
     0
 76
     0
 77
     0
 78
     0
  0
ENDTAB
  0
TABLE
  2
LTYPE
 70
     4
  0
LTYPE
  2
AUSGEZOGEN
 70
     0
  3
Ausgezogene Linie
 72
    65
 73
     0
 40
0.0
  0
LTYPE
  2
HIDDEN
 70
     0
  3
_ _ _ _ _ _ _ _ _ _ _ _ _ _ _ _ _ _ _ _ _ _ _
 72
    65
 73
     2
 40
0.375
 49
0.25
 49
-0.125
  0
LTYPE
  2
CENTER
 70
     0
  3
____ _ ____ _ ____ _ ____ _ ____ _ ____ _ ____
 72
    65
 73
     4
 40
2.0
 49
1.25
 49
-0.25
 49
0.25
 49
-0.25
  0
LTYPE
  2
CONTINUOUS
 70
     0
  3
Solid line
 72
    65
 73
     0
 40
0.0
  0
ENDTAB
  0
TABLE
  2
LAYER
 70
    12
  0
LAYER
  2
0
 70
     0
 62
     8
  6
AUSGEZOGEN
  0
LAYER
  2
05
 70
     0
 62
     2
  6
AUSGEZOGEN
  0
LAYER
  2
BEM1
 70
     0
 62
     4
  6
AUSGEZOGEN
  0
LAYER
  2
MITTE
 70
     0
 62
     4
  6
CENTER
  0
LAYER
  2
VERDECKT
 70
     0
 62
     4
  6
HIDDEN
  0
LAYER
  2
SCHRAFFIERT
 70
     0
 62
     4
  6
AUSGEZOGEN
  0
LAYER
  2
035
 70
     0
 62
     3
  6
AUSGEZOGEN
  0
LAYER
  2
RAHMEN
 70
     0
 62
     2
  6
AUSGEZOGEN
  0
LAYER
  2
07
 70
     0
 62
     1
  6
AUSGEZOGEN
  0
LAYER
  2
025
 70
     0
 62
     4
  6
AUSGEZOGEN
  0
LAYER
  2
DEFPOINTS
 70
     0
 62
    -7
  6
AUSGEZOGEN
  0
LAYER
  2
HILI
 70
     0
 62
     7
  6
AUSGEZOGEN
  0
ENDTAB
  0
TABLE
  2
STYLE
 70
     6
  0
STYLE
  2
STANDARD
 70
     0
 40
0.0
 41
0.7
 50
15.0
 71
     0
 42
3.5
  3
txt
  4

  0
STYLE
  2
HELV
 70
     0
 40
0.0
 41
1.0
 50
0.0
 71
     0
 42
2.3
  3
helv
  4

  0
STYLE
  2
UNIV
 70
     0
 40
0.0
 41
1.0
 50
0.0
 71
     0
 42
2.5
  3
univ
  4

  0
STYLE
  2
SCRIPTS
 70
     0
 40
0.0
 41
1.0
 50
0.0
 71
     0
 42
2.5
  3
scripts
  4

  0
STYLE
  2
HELVL
 70
     0
 40
0.0
 41
0.7
 50
15.0
 71
     0
 42
2.0
  3
helvl
  4

  0
STYLE
  2
ARIAL
 70
     0
 40
0.0
 41
1.0
 50
0.0
 71
     0
 42
3.5
  3
txt
  4

  0
ENDTAB
  0
TABLE
  2
VIEW
 70
     0
  0
ENDTAB
  0
TABLE
  2
UCS
 70
     0
  0
ENDTAB
  0
TABLE
  2
APPID
 70
     1
  0
APPID
  2
ACAD
 70
     0
  0
ENDTAB
  0
TABLE
  2
DIMSTYLE
 70
     1
  0
DIMSTYLE
  2
STANDARD
 70
     0
  3

  4
DIMZIN 3 
  5

  6

  7

 40
0.0
 41
3.5
 42
0.8
 43
8.0
 44
0.8
 45
0.0
 46
0.0
 47
0.0
 48
0.0
140
3.5
141
1.5
142
0.0
143
0.03937
144
0.5
145
0.0
146
1.0
147
1.0
 71
     0
 72
     0
 73
     0
 74
     0
 75
     0
 76
     0
 77
     1
 78
     0
170
     1
171
     3
172
     0
173
     0
174
     0
175
     0
176
     4
177
     4
178
     3
  0
ENDTAB
  0
ENDSEC
  0
SECTION
  2
BLOCKS
  0
BLOCK
  8
0
  2
$MODEL_SPACE
 70
     0
 10
0.0
 20
0.0
 30
0.0
  3
$MODEL_SPACE
  1

  0
ENDBLK
  5
3C
  8
0
  0
BLOCK
 67
     1
  8
0
  2
$PAPER_SPACE
 70
     0
 10
0.0
 20
0.0
 30
0.0
  3
$PAPER_SPACE
  1

  0
ENDBLK
  5
3A
 67
     1
  8
0
  0
BLOCK
  8
0
  2
TOLERANZ
 70
     0
 10
0.0
 20
0.0
 30
0.0
  3
TOLERANZ
  1

  0
ENDBLK
  5
40
  8
0
  0
BLOCK
  8
0
  2
ZKOPF
 70
     2
 10
0.0
 20
0.0
 30
0.0
  3
ZKOPF
  1

  0
ATTDEF
  5
4A
  8
0
 62
     4
 10
-13.321429
 20
37.0
 30
0.0
 40
2.5
  1
Dobler
  7
SCRIPTS
 72
     1
 11
-8.5
 21
37.0
 31
0.0
  3
Name des Konstrukteurs ?
  2
NAME
 70
     0
  0
POLYLINE
  5
4C
  8
0
 62
     2
 66
     1
 10
0.0
 20
0.0
 30
0.0
  0
VERTEX
  5
ED9
  8
0
 62
     2
 10
-51.0
 20
0.0
 30
0.0
  0
VERTEX
  5
EDA
  8
0
 62
     2
 10
-51.0
 20
46.0
 30
0.0
  0
SEQEND
  5
EDB
  8
0
 62
     2
  0
POLYLINE
  5
50
  8
0
 62
     2
 66
     1
 10
0.0
 20
0.0
 30
0.0
  0
VERTEX
  5
EDC
  8
0
 62
     2
 10
-17.0
 20
9.0
 30
0.0
  0
VERTEX
  5
EDD
  8
0
 62
     2
 10
-17.0
 20
46.0
 30
0.0
  0
SEQEND
  5
EDE
  8
0
 62
     2
  0
POLYLINE
  5
54
  8
0
 62
     2
 66
     1
 10
0.0
 20
0.0
 30
0.0
  0
VERTEX
  5
EDF
  8
0
 62
     2
 10
-32.0
 20
26.0
 30
0.0
  0
VERTEX
  5
EE0
  8
0
 62
     2
 10
-32.0
 20
46.0
 30
0.0
  0
SEQEND
  5
EE1
  8
0
 62
     2
  0
POLYLINE
  5
58
  8
0
 62
     2
 66
     1
 10
0.0
 20
0.0
 30
0.0
  0
VERTEX
  5
EE2
  8
0
 62
     2
 10
-133.0
 20
41.0
 30
0.0
  0
VERTEX
  5
EE3
  8
0
 62
     2
 10
-92.0
 20
41.0
 30
0.0
  0
SEQEND
  5
EE4
  8
0
 62
     2
  0
POLYLINE
  5
5C
  8
0
 62
     2
 66
     1
 10
0.0
 20
0.0
 30
0.0
  0
VERTEX
  5
EE5
  8
0
 62
     2
 10
-145.0
 20
0.0
 30
0.0
  0
VERTEX
  5
EE6
  8
0
 62
     2
 10
-145.0
 20
46.0
 30
0.0
  0
SEQEND
  5
EE7
  8
0
 62
     2
  0
POLYLINE
  5
60
  8
0
 62
     2
 66
     1
 10
0.0
 20
0.0
 30
0.0
  0
VERTEX
  5
EE8
  8
0
 62
     2
 10
-158.0
 20
0.0
 30
0.0
  0
VERTEX
  5
EE9
  8
0
 62
     2
 10
-158.0
 20
46.0
 30
0.0
  0
SEQEND
  5
EEA
  8
0
 62
     2
  0
LINE
  5
64
  8
0
 62
     2
 10
-200.0
 20
6.0
 30
0.0
 11
-133.0
 21
6.0
 31
0.0
  0
POLYLINE
  5
65
  8
0
 62
     4
 66
     1
 10
0.0
 20
0.0
 30
0.0
  0
VERTEX
  5
EEB
  8
0
 62
     4
 10
-200.0
 20
11.0
 30
0.0
  0
VERTEX
  5
EEC
  8
0
 62
     4
 10
-133.0
 20
11.0
 30
0.0
  0
SEQEND
  5
EED
  8
0
 62
     4
  0
POLYLINE
  5
69
  8
0
 62
     4
 66
     1
 10
0.0
 20
0.0
 30
0.0
  0
VERTEX
  5
EEE
  8
0
 62
     4
 10
-200.0
 20
16.0
 30
0.0
  0
VERTEX
  5
EEF
  8
0
 62
     4
 10
-133.0
 20
16.0
 30
0.0
  0
SEQEND
  5
EF0
  8
0
 62
     4
  0
POLYLINE
  5
6D
  8
0
 62
     4
 66
     1
 10
0.0
 20
0.0
 30
0.0
  0
VERTEX
  5
EF1
  8
0
 62
     4
 10
-200.0
 20
21.0
 30
0.0
  0
VERTEX
  5
EF2
  8
0
 62
     4
 10
-133.0
 20
21.0
 30
0.0
  0
SEQEND
  5
EF3
  8
0
 62
     4
  0
POLYLINE
  5
71
  8
0
 62
     4
 66
     1
 10
0.0
 20
0.0
 30
0.0
  0
VERTEX
  5
EF4
  8
0
 62
     4
 10
-200.0
 20
26.0
 30
0.0
  0
VERTEX
  5
EF5
  8
0
 62
     4
 10
-133.0
 20
26.0
 30
0.0
  0
SEQEND
  5
EF6
  8
0
 62
     4
  0
POLYLINE
  5
75
  8
0
 62
     4
 66
     1
 10
0.0
 20
0.0
 30
0.0
  0
VERTEX
  5
EF7
  8
0
 62
     4
 10
-200.0
 20
31.0
 30
0.0
  0
VERTEX
  5
EF8
  8
0
 62
     4
 10
-133.0
 20
31.0
 30
0.0
  0
SEQEND
  5
EF9
  8
0
 62
     4
  0
POLYLINE
  5
79
  8
0
 62
     4
 66
     1
 10
0.0
 20
0.0
 30
0.0
  0
VERTEX
  5
EFA
  8
0
 62
     4
 10
-200.0
 20
36.0
 30
0.0
  0
VERTEX
  5
EFB
  8
0
 62
     4
 10
-133.0
 20
36.0
 30
0.0
  0
SEQEND
  5
EFC
  8
0
 62
     4
  0
POLYLINE
  5
7D
  8
0
 62
     4
 66
     1
 10
0.0
 20
0.0
 30
0.0
  0
VERTEX
  5
EFD
  8
0
 62
     4
 10
-200.0
 20
41.0
 30
0.0
  0
VERTEX
  5
EFE
  8
0
 62
     4
 10
-133.0
 20
41.0
 30
0.0
  0
SEQEND
  5
EFF
  8
0
 62
     4
  0
TEXT
  5
81
  8
0
 62
     4
 10
-50.0
 20
6.0
 30
0.0
 40
1.5
  1
Zeichn. Nr.
 51
15.0
  0
TEXT
  5
82
  8
0
 62
     4
 10
-50.0
 20
23.0
 30
0.0
 40
1.5
  1
Ersetzt durch:         Blatt
 51
15.0
  0
TEXT
  5
83
  8
0
 62
     4
 10
-50.0
 20
38.0
 30
0.0
 40
1.5
  1
Gezeichnet
 51
15.0
  0
TEXT
  5
84
  8
0
 62
     4
 10
-50.0
 20
27.0
 30
0.0
 40
1.5
  1
Gesehen
 51
15.0
  0
TEXT
  5
85
  8
0
 62
     4
 10
-31.0
 20
42.0
 30
0.0
 40
1.5
  1
Datum     Name
 51
15.0
  0
TEXT
  5
86
  8
0
 62
     4
 10
-91.0
 20
42.0
 30
0.0
 40
1.5
  1
Werkstoff:      Massstab:
 51
15.0
  0
TEXT
  5
87
  8
0
 62
     4
 10
-132.0
 20
23.0
 30
0.0
 40
1.5
  1
Benennung:
 51
15.0
  0
LINE
  5
88
  8
0
 62
     2
 10
-133.0
 20
33.0
 30
0.0
 11
-92.0
 21
33.0
 31
0.0
  0
TEXT
  5
89
  8
0
 62
     4
 10
-132.0
 20
39.0
 30
0.0
 40
1.5
  1
*)Lieferant darf ohne 
 51
15.0
  0
TEXT
  5
8A
  8
0
 62
     4
 10
-132.0
 20
36.5
 30
0.0
 40
1.5
  1
 Ruecksprache nicht 
 51
15.0
  0
TEXT
  5
8B
  8
0
 62
     4
 10
-132.0
 20
34.0
 30
0.0
 40
1.5
  1
 geaendert werden
 51
15.0
  0
TEXT
  5
8C
  8
0
 62
     4
 10
-132.0
 20
30.0
 30
0.0
 40
1.5
  1
Zeichnung urheberrechtlich
 51
15.0
  0
TEXT
  5
8D
  8
0
 62
     4
 10
-132.0
 20
27.5
 30
0.0
 40
1.5
  1
geschuetzt (DIN 34) (C)
 51
15.0
  0
TEXT
  5
8E
  8
0
 62
     4
 10
-50.0
 20
32.0
 30
0.0
 40
1.5
  1
Geprueft
 51
15.0
  0
TEXT
  5
8F
  8
0
 62
     4
 10
-50.0
 20
15.0
 30
0.0
 40
1.5
  1
Ersatz fuer:           von  Blatt
 51
15.0
  0
TEXT
  5
90
  8
0
 62
     4
 10
-197.0
 20
1.0
 30
0.0
 40
1.5
  1
Ind.  Aenderung             Datum    Name
 51
15.0
  0
ATTDEF
  5
91
  8
0
 62
     4
 10
-28.875
 20
37.0
 30
0.0
 40
2.5
  1
01.10.91
 41
0.7
 51
15.0
 72
     1
 11
-24.5
 21
37.0
 31
0.0
  3
Datum der Zeichnung ?
  2
DATE
 70
     0
  0
ATTDEF
  5
92
  8
0
 62
     4
 10
-80.5
 20
36.0
 30
0.0
 40
2.5
  1

 41
0.7
 51
15.0
 72
     1
 11
-80.5
 21
36.0
 31
0.0
  3
Aus welchem Werkstoff ?
  2
WERKSTOFF
 70
     0
  0
ATTDEF
  5
93
  8
0
 62
     2
 10
-92.0
 20
12.5
 30
0.0
 40
5.0
  1

 41
0.7
 51
15.0
 72
     1
 11
-92.0
 21
12.5
 31
0.0
  3
Zeichnungsname ?
  2
BENENNUNG
 70
     0
  0
ATTDEF
  5
94
  8
0
 62
     3
 10
-90.265457
 20
21.082191
 30
0.0
 40
3.5
  1
()
 41
0.7
 51
15.0
 72
     1
 11
-89.040457
 21
21.082191
 31
0.0
  3
Zu welchem Produkt ?
  2
TEIL
 70
     0
  0
ATTDEF
  5
95
  8
0
 62
     3
 10
-20.550219
 20
1.976541
 30
0.0
 40
3.5
  1

 41
0.7
 51
15.0
 72
     1
 11
-20.550219
 21
1.976541
 31
0.0
  3
Zeichnungsnummer ?
  2
NUMMER
 70
     0
  0
ATTDEF
  5
96
  8
0
 62
     2
 10
-63.482672
 20
34.656056
 30
0.0
 40
5.0
  1
5:1
 41
0.7
 51
15.0
 72
     1
 11
-60.566005
 21
34.656056
 31
0.0
  3
Hauptmassstab:
  2
MASS
 70
     0
  0
ATTDEF
  5
97
  8
0
 62
     3
 10
-60.480701
 20
28.210451
 30
0.0
 40
3.5
  1

 41
0.7
 51
15.0
 72
     1
 11
-60.480701
 21
28.210451
 31
0.0
  3
Nebenmassstab:
  2
MASS2
 70
     0
  0
ATTDEF
  5
98
  8
0
 62
     4
 10
-81.0
 20
29.0
 30
0.0
 40
2.5
  1

 41
0.7
 51
15.0
 72
     1
 11
-81.0
 21
29.0
 31
0.0
  3
Werkstoffzusatz:
  2
TEIL
 70
     0
  0
ATTDEF
  5
99
  8
0
 62
     3
 10
-107.711452
 20
59.004319
 30
0.0
 40
3.5
  1
Freimasstoleranzen %%p0.1
 41
0.7
 51
15.0
  3
Freimasstoleranzen:
  2
TOL
 70
     0
  0
ATTDEF
  5
9A
  8
0
 62
     3
 10
-107.711452
 20
54.004319
 30
0.0
 40
3.5
  1
nicht bemasste Radien R=0.2
 41
0.7
 51
15.0
  3
Nicht bemasste Radien:
  2
RADIEN
 70
     0
  0
ATTDEF
  5
9B
  8
0
 62
     3
 10
-107.711452
 20
49.004319
 30
0.0
 40
3.5
  1
nicht bemasste Facetten 0.5 x 45%%D
 41
0.7
 51
15.0
  3
nicht bemasste Facetten:
  2
FACETTE
 70
     0
  0
POLYLINE
  5
9C
  8
0
 62
     2
 66
     1
 10
0.0
 20
0.0
 30
0.0
  0
VERTEX
  5
F00
  8
0
 62
     2
 10
-191.0
 20
0.0
 30
0.0
  0
VERTEX
  5
F01
  8
0
 62
     2
 10
-191.0
 20
46.0
 30
0.0
  0
SEQEND
  5
F02
  8
0
 62
     2
  0
POLYLINE
  5
A0
  8
0
 62
     2
 66
     1
 10
0.0
 20
0.0
 30
0.0
  0
VERTEX
  5
F03
  8
0
 62
     2
 10
-133.0
 20
0.0
 30
0.0
  0
VERTEX
  5
F04
  8
0
 62
     2
 10
-133.0
 20
46.0
 30
0.0
  0
SEQEND
  5
F05
  8
0
 62
     2
  0
POLYLINE
  5
A4
  8
0
 62
     2
 66
     1
 10
0.0
 20
0.0
 30
0.0
  0
VERTEX
  5
F06
  8
0
 62
     2
 10
-92.0
 20
26.0
 30
0.0
  0
VERTEX
  5
F07
  8
0
 62
     2
 10
-92.0
 20
46.0
 30
0.0
  0
SEQEND
  5
F08
  8
0
 62
     2
  0
POLYLINE
  5
A8
  8
0
 62
     2
 66
     1
 10
0.0
 20
0.0
 30
0.0
  0
VERTEX
  5
F09
  8
0
 62
     2
 10
-69.0
 20
26.0
 30
0.0
  0
VERTEX
  5
F0A
  8
0
 62
     2
 10
-69.0
 20
46.0
 30
0.0
  0
SEQEND
  5
F0B
  8
0
 62
     2
  0
ATTDEF
  5
AC
  8
0
 62
     4
 10
-197.186267
 20
7.0
 30
0.0
 40
2.5
  1

 41
0.7
 51
15.0
  3
Index1:
  2
INDEX1
 70
     0
  0
ATTDEF
  5
AD
  8
0
 62
     4
 10
-190.348743
 20
7.0
 30
0.0
 40
2.5
  1

 41
0.7
 51
15.0
  3
Aenderung1:
  2
A1
 70
     0
  0
ATTDEF
  5
AE
  8
0
 62
     4
 10
-157.348743
 20
7.0
 30
0.0
 40
2.5
  1

 41
0.7
 51
15.0
  3
Datum1:
  2
DATUM1
 70
     0
  0
ATTDEF
  5
AF
  8
0
 62
     4
 10
-144.46499
 20
7.0
 30
0.0
 40
2.5
  1

 41
0.7
 51
15.0
  3
Name1:
  2
NAME1
 70
     0
  0
ATTDEF
  5
B0
  8
0
 62
     4
 10
-197.186267
 20
12.0
 30
0.0
 40
2.5
  1

 41
0.7
 51
15.0
  3
Index2:
  2
INDEX2
 70
     0
  0
ATTDEF
  5
B1
  8
0
 62
     4
 10
-190.348743
 20
12.0
 30
0.0
 40
2.5
  1

 41
0.7
 51
15.0
  3
Aenderung2:
  2
A2
 70
     0
  0
ATTDEF
  5
B2
  8
0
 62
     4
 10
-157.348743
 20
12.0
 30
0.0
 40
2.5
  1

 41
0.7
 51
15.0
  3
Datum2:
  2
DATUM2
 70
     0
  0
ATTDEF
  5
B3
  8
0
 62
     4
 10
-144.46499
 20
12.0
 30
0.0
 40
2.5
  1

 41
0.7
 51
15.0
  3
Name2
  2
NAME2
 70
     0
  0
ATTDEF
  5
B4
  8
0
 62
     4
 10
-197.186267
 20
17.0
 30
0.0
 40
2.5
  1

 41
0.7
 51
15.0
  3
Index3:
  2
INDEX3
 70
     0
  0
ATTDEF
  5
B5
  8
0
 62
     4
 10
-190.348743
 20
17.0
 30
0.0
 40
2.5
  1

 41
0.7
 51
15.0
  3
Aenderung3
  2
A3
 70
     0
  0
ATTDEF
  5
B6
  8
0
 62
     4
 10
-157.348743
 20
17.0
 30
0.0
 40
2.5
  1

 41
0.7
 51
15.0
  3
Datum3:
  2
DATUM3
 70
     0
  0
ATTDEF
  5
B7
  8
0
 62
     4
 10
-144.46499
 20
17.0
 30
0.0
 40
2.5
  1

 41
0.7
 51
15.0
  3
Name3:
  2
NAME3
 70
     0
  0
ATTDEF
  5
B8
  8
0
 62
     4
 10
-197.186267
 20
22.0
 30
0.0
 40
2.5
  1

 41
0.7
 51
15.0
  3
Index4:
  2
INDEX4
 70
     0
  0
ATTDEF
  5
B9
  8
0
 62
     4
 10
-190.348743
 20
22.0
 30
0.0
 40
2.5
  1

 41
0.7
 51
15.0
  3
Aenderung4:
  2
A4
 70
     0
  0
ATTDEF
  5
BA
  8
0
 62
     4
 10
-157.348743
 20
22.0
 30
0.0
 40
2.5
  1

 41
0.7
 51
15.0
  3
Datum4:
  2
DATUM4
 70
     0
  0
ATTDEF
  5
BB
  8
0
 62
     4
 10
-144.46499
 20
22.0
 30
0.0
 40
2.5
  1

 41
0.7
 51
15.0
  3
Name4:
  2
NAME4
 70
     0
  0
ATTDEF
  5
BC
  8
0
 62
     4
 10
-197.186267
 20
27.0
 30
0.0
 40
2.5
  1

 41
0.7
 51
15.0
  3
Index5:
  2
INDEX5
 70
     0
  0
ATTDEF
  5
BD
  8
0
 62
     4
 10
-190.348743
 20
27.0
 30
0.0
 40
2.5
  1

 41
0.7
 51
15.0
  3
Aenderung5:
  2
A5
 70
     0
  0
ATTDEF
  5
BE
  8
0
 62
     4
 10
-157.348743
 20
27.0
 30
0.0
 40
2.5
  1

 41
0.7
 51
15.0
  3
Datum5:
  2
DATUM5
 70
     0
  0
ATTDEF
  5
BF
  8
0
 62
     4
 10
-144.46499
 20
27.0
 30
0.0
 40
2.5
  1

 41
0.7
 51
15.0
  3
Name5
  2
NAME5
 70
     0
  0
ATTDEF
  5
C0
  8
0
 62
     4
 10
-197.186267
 20
32.0
 30
0.0
 40
2.5
  1

 41
0.7
 51
15.0
  3
Index6:
  2
INDEX6
 70
     0
  0
ATTDEF
  5
C1
  8
0
 62
     4
 10
-190.348743
 20
32.0
 30
0.0
 40
2.5
  1

 41
0.7
 51
15.0
  3
Aenderung6:
  2
A6
 70
     0
  0
ATTDEF
  5
C2
  8
0
 62
     4
 10
-157.348743
 20
32.0
 30
0.0
 40
2.5
  1

 41
0.7
 51
15.0
  3
Datum6:
  2
DATUM6
 70
     0
  0
ATTDEF
  5
C3
  8
0
 62
     4
 10
-144.46499
 20
32.0
 30
0.0
 40
2.5
  1

 41
0.7
 51
15.0
  3
Name6:
  2
NAME6
 70
     0
  0
ATTDEF
  5
C4
  8
0
 62
     4
 10
-197.186267
 20
37.0
 30
0.0
 40
2.5
  1

 41
0.7
 51
15.0
  3
Index7:
  2
INDEX7
 70
     0
  0
ATTDEF
  5
C5
  8
0
 62
     4
 10
-190.348743
 20
37.0
 30
0.0
 40
2.5
  1

 41
0.7
 51
15.0
  3
Aenderung7:
  2
A7
 70
     0
  0
ATTDEF
  5
C6
  8
0
 62
     4
 10
-157.348743
 20
37.0
 30
0.0
 40
2.5
  1

 41
0.7
 51
15.0
  3
Datum7:
  2
DATUM7
 70
     0
  0
ATTDEF
  5
C7
  8
0
 62
     4
 10
-144.46499
 20
37.0
 30
0.0
 40
2.5
  1

 41
0.7
 51
15.0
  3
Name7:
  2
NAME7
 70
     0
  0
ATTDEF
  5
C8
  8
0
 62
     4
 10
-197.186267
 20
42.0
 30
0.0
 40
2.5
  1

 41
0.7
 51
15.0
  3
Index8:
  2
INDEX8
 70
     0
  0
ATTDEF
  5
C9
  8
0
 62
     4
 10
-190.348743
 20
42.0
 30
0.0
 40
2.5
  1

 41
0.7
 51
15.0
  3
Aenderung8:
  2
A8
 70
     0
  0
ATTDEF
  5
CA
  8
0
 62
     4
 10
-157.348743
 20
42.0
 30
0.0
 40
2.5
  1

 41
0.7
 51
15.0
  3
Datum8:
  2
DATUM8
 70
     0
  0
ATTDEF
  5
CB
  8
0
 62
     4
 10
-144.46499
 20
42.0
 30
0.0
 40
2.5
  1

 41
0.7
 51
15.0
  3
Name8:
  2
NAME8
 70
     0
  0
POLYLINE
  5
CC
  8
0
 62
     2
 66
     1
 10
0.0
 20
0.0
 30
0.0
  0
VERTEX
  5
F0C
  8
0
 62
     2
 10
0.0
 20
0.0
 30
0.0
  0
VERTEX
  5
F0D
  8
0
 62
     2
 10
0.0
 20
46.0
 30
0.0
  0
SEQEND
  5
F0E
  8
0
 62
     2
  0
POLYLINE
  5
D0
  8
0
 62
     2
 66
     1
 10
0.0
 20
0.0
 30
0.0
  0
VERTEX
  5
F0F
  8
0
 62
     2
 10
-200.0
 20
46.0
 30
0.0
  0
VERTEX
  5
F10
  8
0
 62
     2
 10
-200.0
 20
0.0
 30
0.0
  0
SEQEND
  5
F11
  8
0
 62
     2
  0
POLYLINE
  5
D4
  8
0
 62
     2
 66
     1
 10
0.0
 20
0.0
 30
0.0
  0
VERTEX
  5
F12
  8
0
 62
     2
 10
0.0
 20
9.0
 30
0.0
  0
VERTEX
  5
F13
  8
0
 62
     2
 10
-133.0
 20
9.0
 30
0.0
  0
SEQEND
  5
F14
  8
0
 62
     2
  0
POLYLINE
  5
D8
  8
0
 62
     2
 66
     1
 10
0.0
 20
0.0
 30
0.0
  0
VERTEX
  5
F15
  8
0
 62
     2
 10
0.0
 20
18.0
 30
0.0
  0
VERTEX
  5
F16
  8
0
 62
     2
 10
-51.0
 20
18.0
 30
0.0
  0
SEQEND
  5
F17
  8
0
 62
     2
  0
POLYLINE
  5
DC
  8
0
 62
     2
 66
     1
 10
0.0
 20
0.0
 30
0.0
  0
VERTEX
  5
F18
  8
0
 62
     2
 10
0.0
 20
26.0
 30
0.0
  0
VERTEX
  5
F19
  8
0
 62
     2
 10
-133.0
 20
26.0
 30
0.0
  0
SEQEND
  5
F1A
  8
0
 62
     2
  0
POLYLINE
  5
E0
  8
0
 62
     2
 66
     1
 10
0.0
 20
0.0
 30
0.0
  0
VERTEX
  5
F1B
  8
0
 62
     2
 10
0.0
 20
31.0
 30
0.0
  0
VERTEX
  5
F1C
  8
0
 62
     2
 10
-51.0
 20
31.0
 30
0.0
  0
SEQEND
  5
F1D
  8
0
 62
     2
  0
POLYLINE
  5
E4
  8
0
 62
     2
 66
     1
 10
0.0
 20
0.0
 30
0.0
  0
VERTEX
  5
F1E
  8
0
 62
     2
 10
0.0
 20
36.0
 30
0.0
  0
VERTEX
  5
F1F
  8
0
 62
     2
 10
-51.0
 20
36.0
 30
0.0
  0
SEQEND
  5
F20
  8
0
 62
     2
  0
POLYLINE
  5
E8
  8
0
 62
     2
 66
     1
 10
0.0
 20
0.0
 30
0.0
  0
VERTEX
  5
F21
  8
0
 62
     2
 10
0.0
 20
41.0
 30
0.0
  0
VERTEX
  5
F22
  8
0
 62
     2
 10
-51.0
 20
41.0
 30
0.0
  0
SEQEND
  5
F23
  8
0
 62
     2
  0
POLYLINE
  5
EC
  8
0
 62
     2
 66
     1
 10
0.0
 20
0.0
 30
0.0
  0
VERTEX
  5
F24
  8
0
 62
     2
 10
0.0
 20
46.0
 30
0.0
  0
VERTEX
  5
F25
  8
0
 62
     2
 10
-200.0
 20
46.0
 30
0.0
  0
SEQEND
  5
F26
  8
0
 62
     2
  0
TEXT
  5
F0
  8
035
 10
517.653158
 20
512.84859
 30
0.0
 40
3.5
  1
  
 41
0.7
 51
15.0
  0
LINE
  5
F1
  8
035
 10
-131.889278
 20
3.208952
 30
0.0
 11
-130.181445
 21
3.208952
 31
0.0
  0
LINE
  5
F2
  8
035
 10
-131.338562
 20
5.693072
 30
0.0
 11
-129.320214
 21
5.693072
 31
0.0
  0
LINE
  5
F3
  8
035
 10
-131.889278
 20
3.208952
 30
0.0
 11
-131.338562
 21
5.693072
 31
0.0
  0
LINE
  5
F4
  8
035
 10
-130.181445
 20
3.208952
 30
0.0
 11
-129.871668
 21
4.60627
 31
0.0
  0
LINE
  5
F5
  8
035
 10
-126.377637
 20
3.208952
 30
0.0
 11
-125.826921
 21
5.693072
 31
0.0
  0
LINE
  5
F6
  8
035
 10
-127.775692
 20
4.60627
 30
0.0
 11
-127.534753
 21
5.693072
 31
0.0
  0
LINE
  5
F7
  8
035
 10
-129.871668
 20
4.60627
 30
0.0
 11
-128.318356
 21
3.208952
 31
0.0
  0
LINE
  5
F8
  8
035
 10
-129.320214
 20
5.693072
 30
0.0
 11
-127.775692
 21
4.60627
 31
0.0
  0
LINE
  5
F9
  8
035
 10
-127.534753
 20
5.693072
 30
0.0
 11
-125.826921
 21
5.693072
 31
0.0
  0
LINE
  5
FA
  8
035
 10
-128.318356
 20
3.208952
 30
0.0
 11
-126.377637
 21
3.208952
 31
0.0
  0
LINE
  5
FB
  8
035
 10
-125.523721
 20
3.208952
 30
0.0
 11
-124.973005
 21
5.693072
 31
0.0
  0
LINE
  5
FC
  8
035
 10
-123.718348
 20
3.648931
 30
0.0
 11
-123.572674
 21
4.306023
 31
0.0
  0
LINE
  5
FD
  8
035
 10
-120.855668
 20
4.306023
 30
0.0
 11
-120.791381
 21
4.596001
 31
0.0
  0
LINE
  5
FE
  8
035
 10
-120.865996
 20
3.208952
 30
0.0
 11
-120.768456
 21
3.648931
 31
0.0
  0
LINE
  5
FF
  8
035
 10
-125.523721
 20
3.208952
 30
0.0
 11
-120.865996
 21
3.208952
 31
0.0
  0
LINE
  5
100
  8
035
 10
-124.973005
 20
5.693072
 30
0.0
 11
-120.31528
 21
5.693072
 31
0.0
  0
LINE
  5
101
  8
035
 10
-123.508387
 20
4.596001
 30
0.0
 11
-123.362713
 21
5.253094
 31
0.0
  0
LINE
  5
102
  8
035
 10
-120.412821
 20
5.253094
 30
0.0
 11
-120.31528
 21
5.693072
 31
0.0
  0
LINE
  5
103
  8
035
 10
-119.921488
 20
3.967747
 30
0.0
 11
-119.538993
 21
5.693072
 31
0.0
  0
LINE
  5
104
  8
035
 10
-118.170584
 20
4.181432
 30
0.0
 11
-117.835462
 21
5.693072
 31
0.0
  0
LINE
  5
105
  8
035
 10
-116.302927
 20
4.100887
 30
0.0
 11
-115.949949
 21
5.693072
 31
0.0
  0
LINE
  5
106
  8
035
 10
-114.655674
 20
3.847099
 30
0.0
 11
-114.246432
 21
5.693072
 31
0.0
  0
LINE
  5
107
  8
035
 10
-119.538993
 20
5.693072
 30
0.0
 11
-117.835462
 21
5.693072
 31
0.0
  0
POLYLINE
  5
108
  8
035
 66
     1
 10
0.0
 20
0.0
 30
0.0
  0
VERTEX
  5
F27
  8
035
 10
-119.921488
 20
3.967747
 30
0.0
 42
0.053304
  0
VERTEX
  5
F28
  8
035
 10
-119.927918
 20
3.907611
 30
0.0
 42
0.242955
  0
SEQEND
  5
F29
  8
035
  0
POLYLINE
  5
10C
  8
035
 66
     1
 10
0.0
 20
0.0
 30
0.0
  0
VERTEX
  5
F2A
  8
035
 10
-119.927918
 20
3.907611
 30
0.0
 42
0.242955
  0
VERTEX
  5
F2B
  8
035
 10
-119.808149
 20
3.675677
 30
0.0
 42
0.083039
  0
VERTEX
  5
F2C
  8
035
 10
-119.154862
 20
3.358693
 30
0.0
 42
0.041229
  0
VERTEX
  5
F2D
  8
035
 10
-118.372334
 20
3.197098
 30
0.0
 42
0.030317
  0
VERTEX
  5
F2E
  8
035
 10
-117.28854
 20
3.131323
 30
0.0
 42
0.030317
  0
VERTEX
  5
F2F
  8
035
 10
-116.204747
 20
3.197098
 30
0.0
 42
0.041229
  0
VERTEX
  5
F30
  8
035
 10
-115.422219
 20
3.358693
 30
0.0
 42
0.083039
  0
VERTEX
  5
F31
  8
035
 10
-114.768932
 20
3.675677
 30
0.0
 42
0.186877
  0
VERTEX
  5
F32
  8
035
 10
-114.655674
 20
3.847099
 30
0.0
 42
0.242955
  0
SEQEND
  5
F33
  8
035
  0
POLYLINE
  5
117
  8
035
 66
     1
 10
0.0
 20
0.0
 30
0.0
  0
VERTEX
  5
F34
  8
035
 10
-118.175358
 20
4.140497
 30
0.0
 42
0.199105
  0
VERTEX
  5
F35
  8
035
 10
-118.123163
 20
4.014618
 30
0.0
 42
0.098437
  0
VERTEX
  5
F36
  8
035
 10
-117.900493
 20
3.866038
 30
0.0
 42
0.055684
  0
VERTEX
  5
F37
  8
035
 10
-117.619171
 20
3.784861
 30
0.0
 42
0.042444
  0
VERTEX
  5
F38
  8
035
 10
-117.23691
 20
3.752353
 30
0.0
 42
0.042444
  0
VERTEX
  5
F39
  8
035
 10
-116.854649
 20
3.784861
 30
0.0
 42
0.055684
  0
VERTEX
  5
F3A
  8
035
 10
-116.573327
 20
3.866038
 30
0.0
 42
0.098437
  0
VERTEX
  5
F3B
  8
035
 10
-116.350657
 20
4.014618
 30
0.0
 42
0.141327
  0
VERTEX
  5
F3C
  8
035
 10
-116.302927
 20
4.100887
 30
0.0
 42
0.199105
  0
SEQEND
  5
F3D
  8
035
  0
POLYLINE
  5
122
  8
035
 66
     1
 10
0.0
 20
0.0
 30
0.0
  0
VERTEX
  5
F3E
  8
035
 10
-118.170584
 20
4.181432
 30
0.0
 42
0.058115
  0
VERTEX
  5
F3F
  8
035
 10
-118.175358
 20
4.140497
 30
0.0
 42
0.199105
  0
SEQEND
  5
F40
  8
035
  0
LINE
  5
126
  8
035
 10
-115.949949
 20
5.693072
 30
0.0
 11
-114.246432
 21
5.693072
 31
0.0
  0
LINE
  5
127
  8
035
 10
-113.932145
 20
5.072042
 30
0.0
 11
-113.794466
 21
5.693072
 31
0.0
  0
LINE
  5
128
  8
035
 10
-112.792607
 20
3.208952
 30
0.0
 11
-112.37957
 21
5.072042
 31
0.0
  0
LINE
  5
129
  8
035
 10
-111.084775
 20
3.208952
 30
0.0
 11
-110.671738
 21
5.072042
 31
0.0
  0
LINE
  5
12A
  8
035
 10
-109.041534
 20
5.072042
 30
0.0
 11
-108.903855
 21
5.693072
 31
0.0
  0
LINE
  5
12B
  8
035
 10
-113.932145
 20
5.072042
 30
0.0
 11
-112.37957
 21
5.072042
 31
0.0
  0
LINE
  5
12C
  8
035
 10
-112.792607
 20
3.208952
 30
0.0
 11
-111.084775
 21
3.208952
 31
0.0
  0
LINE
  5
12D
  8
035
 10
-113.794466
 20
5.693072
 30
0.0
 11
-108.903855
 21
5.693072
 31
0.0
  0
LINE
  5
12E
  8
035
 10
-110.671738
 20
5.072042
 30
0.0
 11
-109.041534
 21
5.072042
 31
0.0
  0
LINE
  5
12F
  8
035
 10
-108.91117
 20
3.208952
 30
0.0
 11
-108.360454
 21
5.693072
 31
0.0
  0
LINE
  5
130
  8
035
 10
-107.203338
 20
3.208952
 30
0.0
 11
-106.997985
 21
4.13524
 31
0.0
  0
LINE
  5
131
  8
035
 10
-108.91117
 20
3.208952
 30
0.0
 11
-107.203338
 21
3.208952
 31
0.0
  0
LINE
  5
132
  8
035
 10
-108.360454
 20
5.693072
 30
0.0
 11
-104.002078
 21
5.693072
 31
0.0
  0
LINE
  5
133
  8
035
 10
-103.691866
 20
3.468914
 30
0.0
 11
-103.651414
 21
4.047405
 31
0.0
  0
LINE
  5
134
  8
035
 10
-105.404037
 20
3.406868
 30
0.0
 11
-105.372771
 21
3.861921
 31
0.0
  0
LINE
  5
135
  8
035
 10
-106.933698
 20
4.425218
 30
0.0
 11
-106.750163
 21
5.253094
 31
0.0
  0
ARC
  5
136
  8
035
 10
-103.304668
 20
3.441838
 30
0.0
 40
0.388144
 50
176.0
 51
216.869898
  0
ARC
  5
137
  8
035
 10
-105.030247
 20
3.411905
 30
0.0
 40
0.373824
 50
180.772005
 51
212.881875
  0
LINE
  5
138
  8
035
 10
-105.344182
 20
3.208952
 30
0.0
 11
-103.615183
 21
3.208952
 31
0.0
  0
POLYLINE
  5
139
  8
035
 66
     1
 10
0.0
 20
0.0
 30
0.0
  0
VERTEX
  5
F41
  8
035
 10
-103.651414
 20
4.047405
 30
0.0
 42
0.084831
  0
VERTEX
  5
F42
  8
035
 10
-103.660284
 20
4.142982
 30
0.0
 42
0.153048
  0
VERTEX
  5
F43
  8
035
 10
-103.751613
 20
4.286875
 30
0.0
 42
0.025315
  0
VERTEX
  5
F44
  8
035
 10
-103.797537
 20
4.321852
 30
0.0
 42
0.067948
  0
SEQEND
  5
F45
  8
035
  0
POLYLINE
  5
13F
  8
035
 66
     1
 10
0.0
 20
0.0
 30
0.0
  0
VERTEX
  5
F46
  8
035
 10
-103.797537
 20
4.321852
 30
0.0
 42
0.015369
  0
VERTEX
  5
F47
  8
035
 10
-103.68387
 20
4.380025
 30
0.0
 42
0.073981
  0
VERTEX
  5
F48
  8
035
 10
-103.356816
 20
4.629409
 30
0.0
 42
0.106894
  0
VERTEX
  5
F49
  8
035
 10
-103.152297
 20
4.956595
 30
0.0
 42
0.153048
  0
VERTEX
  5
F4A
  8
035
 10
-103.140863
 20
5.229042
 30
0.0
 42
0.153048
  0
VERTEX
  5
F4B
  8
035
 10
-103.286988
 20
5.459272
 30
0.0
 42
0.106894
  0
VERTEX
  5
F4C
  8
035
 10
-103.627701
 20
5.640364
 30
0.0
 42
0.067948
  0
VERTEX
  5
F4D
  8
035
 10
-104.002078
 20
5.693072
 30
0.0
 42
0.060566
  0
SEQEND
  5
F4E
  8
035
  0
LINE
  5
149
  8
035
 10
-102.856129
 20
3.208952
 30
0.0
 11
-102.305412
 21
5.693072
 31
0.0
  0
LINE
  5
14A
  8
035
 10
-101.148296
 20
3.208952
 30
0.0
 11
-100.59758
 21
5.693072
 31
0.0
  0
LINE
  5
14B
  8
035
 10
-102.856129
 20
3.208952
 30
0.0
 11
-101.148296
 21
3.208952
 31
0.0
  0
LINE
  5
14C
  8
035
 10
-102.305412
 20
5.693072
 30
0.0
 11
-100.59758
 21
5.693072
 31
0.0
  0
LINE
  5
14D
  8
035
 10
-100.139123
 20
3.208952
 30
0.0
 11
-99.588406
 21
5.693072
 31
0.0
  0
LINE
  5
14E
  8
035
 10
-98.508919
 20
3.208952
 30
0.0
 11
-98.37124
 21
3.829982
 31
0.0
  0
LINE
  5
14F
  8
035
 10
-99.588406
 20
5.693072
 30
0.0
 11
-97.958203
 21
5.693072
 31
0.0
  0
LINE
  5
150
  8
035
 10
-100.139123
 20
3.208952
 30
0.0
 11
-98.508919
 21
3.208952
 31
0.0
  0
LINE
  5
151
  8
035
 10
-98.37124
 20
3.829982
 30
0.0
 11
-97.642556
 21
4.140497
 31
0.0
  0
LINE
  5
152
  8
035
 10
-98.144475
 20
4.852855
 30
0.0
 11
-96.172742
 21
5.693072
 31
0.0
  0
LINE
  5
153
  8
035
 10
-96.172742
 20
5.693072
 30
0.0
 11
-93.999137
 21
5.693072
 31
0.0
  0
LINE
  5
154
  8
035
 10
-97.642556
 20
4.140497
 30
0.0
 11
-96.723458
 21
3.208952
 31
0.0
  0
LINE
  5
155
  8
035
 10
-96.003018
 20
4.839156
 30
0.0
 11
-94.394596
 21
3.208952
 31
0.0
  0
LINE
  5
156
  8
035
 10
-96.003018
 20
4.839156
 30
0.0
 11
-93.999137
 21
5.693072
 31
0.0
  0
LINE
  5
157
  8
035
 10
-98.144475
 20
4.852855
 30
0.0
 11
-97.958203
 21
5.693072
 31
0.0
  0
LINE
  5
158
  8
035
 10
-96.723458
 20
3.208952
 30
0.0
 11
-94.394596
 21
3.208952
 31
0.0
  0
LINE
  5
159
  8
035
 10
-91.535849
 20
3.208952
 30
0.0
 11
-89.859713
 21
3.208952
 31
0.0
  0
LINE
  5
15A
  8
035
 10
-89.672213
 20
5.693801
 30
0.0
 11
-86.717509
 21
5.693801
 31
0.0
  0
LINE
  5
15B
  8
035
 10
-91.535849
 20
3.208952
 30
0.0
 11
-89.672213
 21
5.693801
 31
0.0
  0
LINE
  5
15C
  8
035
 10
-86.717509
 20
5.693801
 30
0.0
 11
-86.096297
 21
3.208952
 31
0.0
  0
LINE
  5
15D
  8
035
 10
-89.499689
 20
3.688984
 30
0.0
 11
-87.773968
 21
3.688984
 31
0.0
  0
LINE
  5
15E
  8
035
 10
-89.219798
 20
4.062171
 30
0.0
 11
-87.867265
 21
4.062171
 31
0.0
  0
LINE
  5
15F
  8
035
 10
-85.384981
 20
3.719952
 30
0.0
 11
-85.11662
 21
5.241907
 31
0.0
  0
LINE
  5
160
  8
035
 10
-80.632927
 20
3.208952
 30
0.0
 11
-80.440303
 21
4.301376
 31
0.0
  0
LINE
  5
161
  8
035
 10
-83.773875
 20
4.049318
 30
0.0
 11
-83.613979
 21
4.956134
 31
0.0
  0
LINE
  5
162
  8
035
 10
-82.185958
 20
3.208952
 30
0.0
 11
-82.180952
 21
3.237338
 31
0.0
  0
LINE
  5
163
  8
035
 10
-82.653819
 20
4.078649
 30
0.0
 11
-82.614546
 21
4.301376
 31
0.0
  0
LINE
  5
164
  8
035
 10
-82.653819
 20
4.078649
 30
0.0
 11
-82.032607
 21
4.078649
 31
0.0
  0
ARC
  5
165
  8
035
 10
-82.531573
 20
-8.003128
 30
0.0
 40
13.697153
 50
81.659895
 51
99.80279
  0
ARC
  5
166
  8
035
 10
-83.091534
 20
16.90419
 30
0.0
 40
13.697153
 50
261.461473
 51
273.811815
  0
ARC
  5
167
  8
035
 10
-84.810733
 20
5.187971
 30
0.0
 40
0.310606
 50
99.80279
 51
170.0
  0
ARC
  5
168
  8
035
 10
-85.079094
 20
3.666016
 30
0.0
 40
0.310606
 50
170.0
 51
261.461473
  0
ARC
  5
169
  8
035
 10
-80.58987
 20
5.24185
 30
0.0
 40
0.310606
 50
350.0
 51
81.659895
  0
LINE
  5
16A
  8
035
 10
-81.898429
 20
4.963993
 30
0.0
 11
-80.323466
 21
4.963993
 31
0.0
  0
LINE
  5
16B
  8
035
 10
-80.323466
 20
4.963993
 30
0.0
 11
-80.283983
 21
5.187914
 31
0.0
  0
LINE
  5
16C
  8
035
 10
-82.052147
 20
3.967832
 30
0.0
 11
-82.032607
 21
4.078649
 31
0.0
  0
ARC
  5
16D
  8
035
 10
-82.755724
 20
1.698274
 30
0.0
 40
3.561797
 50
80.208339
 51
99.781825
  0
ARC
  5
16E
  8
035
 10
-82.989141
 20
7.211117
 30
0.0
 40
3.561797
 50
261.530468
 51
281.193068
  0
ARC
  5
16F
  8
035
 10
-83.308092
 20
4.902198
 30
0.0
 40
0.310606
 50
99.781825
 51
170.0
  0
ARC
  5
170
  8
035
 10
-82.202807
 20
4.902103
 30
0.0
 40
0.310606
 50
11.493425
 51
80.208339
  0
ARC
  5
171
  8
035
 10
-83.467988
 20
3.995382
 30
0.0
 40
0.310606
 50
170.0
 51
261.530468
  0
ARC
  5
172
  8
035
 10
-82.358034
 20
4.021768
 30
0.0
 40
0.310606
 50
281.193068
 51
350.0
  0
LINE
  5
173
  8
035
 10
-82.185958
 20
3.208952
 30
0.0
 11
-80.632927
 21
3.208952
 31
0.0
  0
LINE
  5
174
  8
035
 10
-87.65396
 20
3.208952
 30
0.0
 11
-86.096297
 21
3.208952
 31
0.0
  0
TEXT
  5
175
  8
035
 62
     4
 10
-77.576926
 20
3.264636
 30
0.0
 40
2.484848
  1
FL-9494 SCHAAN
 41
0.7
 51
15.0
  7
HELV
  0
LINE
  5
177
  8
035
 10
-123.362713
 20
5.253094
 30
0.0
 11
-120.412821
 21
5.253094
 31
0.0
  0
LINE
  5
178
  8
035
 10
-123.508387
 20
4.596001
 30
0.0
 11
-120.791381
 21
4.596001
 31
0.0
  0
LINE
  5
179
  8
035
 10
-123.572674
 20
4.306023
 30
0.0
 11
-120.855668
 21
4.306023
 31
0.0
  0
LINE
  5
17A
  8
035
 10
-123.718348
 20
3.648931
 30
0.0
 11
-120.768456
 21
3.648931
 31
0.0
  0
LINE
  5
17B
  8
0
 62
     4
 10
-94.088306
 20
5.655074
 30
0.0
 11
-94.050308
 21
5.693072
 31
0.0
  0
LINE
  5
17C
  8
0
 62
     4
 10
-94.413108
 20
3.208952
 30
0.0
 11
-94.40379
 21
3.21827
 31
0.0
  0
LINE
  5
17D
  8
035
 10
-106.750163
 20
5.253094
 30
0.0
 11
-105.343603
 21
5.253094
 31
0.0
  0
LINE
  5
17E
  8
035
 10
-106.933698
 20
4.425218
 30
0.0
 11
-105.573373
 21
4.425218
 31
0.0
  0
LINE
  5
17F
  8
035
 10
-106.997985
 20
4.13524
 30
0.0
 11
-105.5491
 21
4.13524
 31
0.0
  0
LINE
  5
180
  8
035
 10
-105.343603
 20
5.253094
 30
0.0
 11
-105.232586
 21
5.23493
 31
0.0
  0
LINE
  5
181
  8
035
 10
-105.232586
 20
5.23493
 30
0.0
 11
-105.136389
 21
5.186199
 31
0.0
  0
LINE
  5
182
  8
035
 10
-105.136389
 20
5.186199
 30
0.0
 11
-105.090213
 21
5.111822
 31
0.0
  0
LINE
  5
183
  8
035
 10
-105.090213
 20
5.111822
 30
0.0
 11
-105.054301
 21
5.022057
 31
0.0
  0
LINE
  5
184
  8
035
 10
-105.054301
 20
5.022057
 30
0.0
 11
-105.053017
 21
4.9246
 31
0.0
  0
LINE
  5
185
  8
035
 10
-105.053017
 20
4.9246
 30
0.0
 11
-105.063278
 21
4.783539
 31
0.0
  0
LINE
  5
186
  8
035
 10
-105.063278
 20
4.783539
 30
0.0
 11
-105.114586
 21
4.697624
 31
0.0
  0
LINE
  5
187
  8
035
 10
-105.114586
 20
4.697624
 30
0.0
 11
-105.20565
 21
4.591186
 31
0.0
  0
LINE
  5
188
  8
035
 10
-105.20565
 20
4.591186
 30
0.0
 11
-105.342894
 21
4.509116
 31
0.0
  0
LINE
  5
189
  8
035
 10
-105.342894
 20
4.509116
 30
0.0
 11
-105.473724
 21
4.442434
 31
0.0
  0
LINE
  5
18A
  8
035
 10
-105.473724
 20
4.442434
 30
0.0
 11
-105.573373
 21
4.425218
 31
0.0
  0
LINE
  5
18B
  8
035
 10
-105.5491
 20
4.13524
 30
0.0
 11
-105.466219
 21
4.123579
 31
0.0
  0
LINE
  5
18C
  8
035
 10
-105.466219
 20
4.123579
 30
0.0
 11
-105.413019
 21
4.089933
 31
0.0
  0
LINE
  5
18D
  8
035
 10
-105.413019
 20
4.089933
 30
0.0
 11
-105.380449
 21
4.036745
 31
0.0
  0
LINE
  5
18E
  8
035
 10
-105.380449
 20
4.036745
 30
0.0
 11
-105.365249
 21
3.972704
 31
0.0
  0
LINE
  5
18F
  8
035
 10
-105.365249
 20
3.972704
 30
0.0
 11
-105.372771
 21
3.861921
 31
0.0
  0
LINE
  5
190
  8
035
 10
-88.205398
 20
5.414705
 30
0.0
 11
-87.867265
 21
4.062171
 31
0.0
  0
LINE
  5
191
  8
035
 10
-89.219798
 20
4.062171
 30
0.0
 11
-88.205398
 21
5.414705
 31
0.0
  0
LINE
  5
192
  8
035
 10
-87.773968
 20
3.688984
 30
0.0
 11
-87.65396
 21
3.208952
 31
0.0
  0
LINE
  5
193
  8
035
 10
-89.859713
 20
3.208952
 30
0.0
 11
-89.499689
 21
3.688984
 31
0.0
  0
LINE
  5
194
  8
035
 10
-82.614546
 20
4.301376
 30
0.0
 11
-80.440303
 21
4.301376
 31
0.0
  0
INSERT
  5
195
  8
035
 62
     4
  2
*X2
 10
-280.0
 20
-100.0
 30
0.0
1001
ACAD
1000
HATCH
1002
{
1070
    16
1000
ANSI37,I
1040
1.8
1040
0.0
1002
}
  0
ENDBLK
  5
196
  8
0
  0
BLOCK
  8
0
  2
*X2
 70
     1
 10
0.0
 20
0.0
 30
0.0
  3
*X2
  1

  0
LINE
  5
198
  8
0
 62
     0
 10
172.576127
 20
103.208952
 30
0.0
 11
172.85948
 21
103.492304
 31
0.0
  0
LINE
  5
199
  8
0
 62
     0
 10
174.620269
 20
105.253094
 30
0.0
 11
175.060247
 21
105.693072
 31
0.0
  0
LINE
  5
19A
  8
0
 62
     0
 10
173.502415
 20
104.13524
 30
0.0
 11
173.792393
 21
104.425218
 31
0.0
  0
LINE
  5
19B
  8
0
 62
     0
 10
172.257929
 20
103.208952
 30
0.0
 11
172.950116
 21
103.901139
 31
0.0
  0
LINE
  5
19C
  8
0
 62
     0
 10
174.302071
 20
105.253094
 30
0.0
 11
174.742049
 21
105.693072
 31
0.0
  0
LINE
  5
19D
  8
0
 62
     0
 10
173.184217
 20
104.13524
 30
0.0
 11
173.474195
 21
104.425218
 31
0.0
  0
LINE
  5
19E
  8
0
 62
     0
 10
171.939731
 20
103.208952
 30
0.0
 11
173.155997
 21
104.425218
 31
0.0
  0
LINE
  5
19F
  8
0
 62
     0
 10
173.983873
 20
105.253094
 30
0.0
 11
174.423851
 21
105.693072
 31
0.0
  0
LINE
  5
1A0
  8
0
 62
     0
 10
171.621533
 20
103.208952
 30
0.0
 11
173.131389
 21
104.718808
 31
0.0
  0
LINE
  5
1A1
  8
0
 62
     0
 10
173.665675
 20
105.253094
 30
0.0
 11
174.105653
 21
105.693072
 31
0.0
  0
LINE
  5
1A2
  8
0
 62
     0
 10
171.303335
 20
103.208952
 30
0.0
 11
173.222025
 21
105.127642
 31
0.0
  0
LINE
  5
1A3
  8
0
 62
     0
 10
173.347477
 20
105.253094
 30
0.0
 11
173.787455
 21
105.693072
 31
0.0
  0
LINE
  5
1A4
  8
0
 62
     0
 10
171.118366
 20
103.342181
 30
0.0
 11
173.469257
 21
105.693072
 31
0.0
  0
LINE
  5
1A5
  8
0
 62
     0
 10
171.209002
 20
103.751015
 30
0.0
 11
173.151059
 21
105.693072
 31
0.0
  0
LINE
  5
1A6
  8
0
 62
     0
 10
171.299639
 20
104.15985
 30
0.0
 11
172.832861
 21
105.693072
 31
0.0
  0
LINE
  5
1A7
  8
0
 62
     0
 10
171.390275
 20
104.568684
 30
0.0
 11
172.514663
 21
105.693072
 31
0.0
  0
LINE
  5
1A8
  8
0
 62
     0
 10
171.480911
 20
104.977519
 30
0.0
 11
172.196465
 21
105.693072
 31
0.0
  0
LINE
  5
1A9
  8
0
 62
     0
 10
171.571548
 20
105.386353
 30
0.0
 11
171.878267
 21
105.693072
 31
0.0
  0
LINE
  5
1AA
  8
0
 62
     0
 10
170.939039
 20
105.072042
 30
0.0
 11
170.963999
 21
105.097002
 31
0.0
  0
LINE
  5
1AB
  8
0
 62
     0
 10
168.757751
 20
103.208952
 30
0.0
 11
168.96008
 21
103.411282
 31
0.0
  0
LINE
  5
1AC
  8
0
 62
     0
 10
170.620841
 20
105.072042
 30
0.0
 11
171.054636
 21
105.505837
 31
0.0
  0
LINE
  5
1AD
  8
0
 62
     0
 10
168.439553
 20
103.208952
 30
0.0
 11
169.050717
 21
103.820116
 31
0.0
  0
LINE
  5
1AE
  8
0
 62
     0
 10
170.302643
 20
105.072042
 30
0.0
 11
170.923673
 21
105.693072
 31
0.0
  0
LINE
  5
1AF
  8
0
 62
     0
 10
168.121355
 20
103.208952
 30
0.0
 11
169.141353
 21
104.228951
 31
0.0
  0
LINE
  5
1B0
  8
0
 62
     0
 10
169.984445
 20
105.072042
 30
0.0
 11
170.605474
 21
105.693072
 31
0.0
  0
LINE
  5
1B1
  8
0
 62
     0
 10
167.803157
 20
103.208952
 30
0.0
 11
169.23199
 21
104.637785
 31
0.0
  0
LINE
  5
1B2
  8
0
 62
     0
 10
169.666246
 20
105.072042
 30
0.0
 11
170.287276
 21
105.693072
 31
0.0
  0
LINE
  5
1B3
  8
0
 62
     0
 10
167.484959
 20
103.208952
 30
0.0
 11
169.322626
 21
105.04662
 31
0.0
  0
LINE
  5
1B4
  8
0
 62
     0
 10
169.348048
 20
105.072042
 30
0.0
 11
169.969078
 21
105.693072
 31
0.0
  0
LINE
  5
1B5
  8
0
 62
     0
 10
167.218966
 20
103.261158
 30
0.0
 11
169.65088
 21
105.693072
 31
0.0
  0
LINE
  5
1B6
  8
0
 62
     0
 10
167.309603
 20
103.669992
 30
0.0
 11
169.332682
 21
105.693072
 31
0.0
  0
LINE
  5
1B7
  8
0
 62
     0
 10
167.400239
 20
104.078827
 30
0.0
 11
169.014484
 21
105.693072
 31
0.0
  0
LINE
  5
1B8
  8
0
 62
     0
 10
167.490876
 20
104.487661
 30
0.0
 11
168.696286
 21
105.693072
 31
0.0
  0
LINE
  5
1B9
  8
0
 62
     0
 10
167.581512
 20
104.896496
 30
0.0
 11
168.378088
 21
105.693072
 31
0.0
  0
LINE
  5
1BA
  8
0
 62
     0
 10
167.43886
 20
105.072042
 30
0.0
 11
168.05989
 21
105.693072
 31
0.0
  0
LINE
  5
1BB
  8
0
 62
     0
 10
167.120662
 20
105.072042
 30
0.0
 11
167.741692
 21
105.693072
 31
0.0
  0
LINE
  5
1BC
  8
0
 62
     0
 10
166.802464
 20
105.072042
 30
0.0
 11
167.423494
 21
105.693072
 31
0.0
  0
LINE
  5
1BD
  8
0
 62
     0
 10
164.888376
 20
103.476152
 30
0.0
 11
165.368539
 21
103.956315
 31
0.0
  0
LINE
  5
1BE
  8
0
 62
     0
 10
166.484266
 20
105.072042
 30
0.0
 11
167.105296
 21
105.693072
 31
0.0
  0
LINE
  5
1BF
  8
0
 62
     0
 10
164.405466
 20
103.31144
 30
0.0
 11
165.459175
 21
104.365149
 31
0.0
  0
LINE
  5
1C0
  8
0
 62
     0
 10
166.166068
 20
105.072042
 30
0.0
 11
166.787098
 21
105.693072
 31
0.0
  0
LINE
  5
1C1
  8
0
 62
     0
 10
164.002769
 20
103.226941
 30
0.0
 11
165.549811
 21
104.773984
 31
0.0
  0
LINE
  5
1C2
  8
0
 62
     0
 10
166.130516
 20
105.354688
 30
0.0
 11
166.4689
 21
105.693072
 31
0.0
  0
LINE
  5
1C3
  8
0
 62
     0
 10
163.636859
 20
103.17923
 30
0.0
 11
165.640448
 21
105.182818
 31
0.0
  0
LINE
  5
1C4
  8
0
 62
     0
 10
163.289411
 20
103.149979
 30
0.0
 11
165.731084
 21
105.591652
 31
0.0
  0
LINE
  5
1C5
  8
0
 62
     0
 10
162.955891
 20
103.134657
 30
0.0
 11
165.514306
 21
105.693072
 31
0.0
  0
LINE
  5
1C6
  8
0
 62
     0
 10
162.634688
 20
103.131652
 30
0.0
 11
163.335119
 21
103.832084
 31
0.0
  0
LINE
  5
1C7
  8
0
 62
     0
 10
163.723606
 20
104.22057
 30
0.0
 11
165.196108
 21
105.693072
 31
0.0
  0
LINE
  5
1C8
  8
0
 62
     0
 10
162.324518
 20
103.139681
 30
0.0
 11
162.944469
 21
103.759631
 31
0.0
  0
LINE
  5
1C9
  8
0
 62
     0
 10
163.814242
 20
104.629404
 30
0.0
 11
164.87791
 21
105.693072
 31
0.0
  0
LINE
  5
1CA
  8
0
 62
     0
 10
162.024343
 20
103.157703
 30
0.0
 11
162.623312
 21
103.756673
 31
0.0
  0
LINE
  5
1CB
  8
0
 62
     0
 10
163.904878
 20
105.038239
 30
0.0
 11
164.559711
 21
105.693072
 31
0.0
  0
LINE
  5
1CC
  8
0
 62
     0
 10
161.733306
 20
103.184864
 30
0.0
 11
162.340799
 21
103.792357
 31
0.0
  0
LINE
  5
1CD
  8
0
 62
     0
 10
163.995515
 20
105.447073
 30
0.0
 11
164.241513
 21
105.693072
 31
0.0
  0
LINE
  5
1CE
  8
0
 62
     0
 10
161.452007
 20
103.221764
 30
0.0
 11
162.097229
 21
103.866985
 31
0.0
  0
LINE
  5
1CF
  8
0
 62
     0
 10
161.184171
 20
103.272125
 30
0.0
 11
161.902409
 21
103.990363
 31
0.0
  0
LINE
  5
1D0
  8
0
 62
     0
 10
160.928758
 20
103.33491
 30
0.0
 11
161.844836
 21
104.250989
 31
0.0
  0
LINE
  5
1D1
  8
0
 62
     0
 10
160.687321
 20
103.411671
 30
0.0
 11
161.935473
 21
104.659823
 31
0.0
  0
LINE
  5
1D2
  8
0
 62
     0
 10
160.466718
 20
103.509267
 30
0.0
 11
162.026109
 21
105.068658
 31
0.0
  0
LINE
  5
1D3
  8
0
 62
     0
 10
160.265103
 20
103.62585
 30
0.0
 11
162.116745
 21
105.477492
 31
0.0
  0
LINE
  5
1D4
  8
0
 62
     0
 10
160.101894
 20
103.780839
 30
0.0
 11
162.014127
 21
105.693072
 31
0.0
  0
LINE
  5
1D5
  8
0
 62
     0
 10
160.109248
 20
104.106391
 30
0.0
 11
161.695929
 21
105.693072
 31
0.0
  0
LINE
  5
1D6
  8
0
 62
     0
 10
158.893611
 20
103.208952
 30
0.0
 11
159.202478
 21
103.517819
 31
0.0
  0
LINE
  5
1D7
  8
0
 62
     0
 10
160.199885
 20
104.515226
 30
0.0
 11
161.377731
 21
105.693072
 31
0.0
  0
LINE
  5
1D8
  8
0
 62
     0
 10
158.575413
 20
103.208952
 30
0.0
 11
159.015392
 21
103.648931
 31
0.0
  0
LINE
  5
1D9
  8
0
 62
     0
 10
160.290521
 20
104.92406
 30
0.0
 11
161.059533
 21
105.693072
 31
0.0
  0
LINE
  5
1DA
  8
0
 62
     0
 10
158.257215
 20
103.208952
 30
0.0
 11
158.697194
 21
103.648931
 31
0.0
  0
LINE
  5
1DB
  8
0
 62
     0
 10
160.381158
 20
105.332895
 30
0.0
 11
160.741335
 21
105.693072
 31
0.0
  0
LINE
  5
1DC
  8
0
 62
     0
 10
157.939017
 20
103.208952
 30
0.0
 11
158.378996
 21
103.648931
 31
0.0
  0
LINE
  5
1DD
  8
0
 62
     0
 10
159.036088
 20
104.306023
 30
0.0
 11
159.175165
 21
104.4451
 31
0.0
  0
LINE
  5
1DE
  8
0
 62
     0
 10
157.620819
 20
103.208952
 30
0.0
 11
158.060797
 21
103.648931
 31
0.0
  0
LINE
  5
1DF
  8
0
 62
     0
 10
158.71789
 20
104.306023
 30
0.0
 11
159.007868
 21
104.596001
 31
0.0
  0
LINE
  5
1E0
  8
0
 62
     0
 10
157.302621
 20
103.208952
 30
0.0
 11
157.742599
 21
103.648931
 31
0.0
  0
LINE
  5
1E1
  8
0
 62
     0
 10
159.346762
 20
105.253094
 30
0.0
 11
159.65566
 21
105.561991
 31
0.0
  0
LINE
  5
1E2
  8
0
 62
     0
 10
158.399692
 20
104.306023
 30
0.0
 11
158.68967
 21
104.596001
 31
0.0
  0
LINE
  5
1E3
  8
0
 62
     0
 10
156.984423
 20
103.208952
 30
0.0
 11
157.424401
 21
103.648931
 31
0.0
  0
LINE
  5
1E4
  8
0
 62
     0
 10
159.028564
 20
105.253094
 30
0.0
 11
159.468543
 21
105.693072
 31
0.0
  0
LINE
  5
1E5
  8
0
 62
     0
 10
158.081494
 20
104.306023
 30
0.0
 11
158.371472
 21
104.596001
 31
0.0
  0
LINE
  5
1E6
  8
0
 62
     0
 10
156.666225
 20
103.208952
 30
0.0
 11
157.106203
 21
103.648931
 31
0.0
  0
LINE
  5
1E7
  8
0
 62
     0
 10
158.710366
 20
105.253094
 30
0.0
 11
159.150345
 21
105.693072
 31
0.0
  0
LINE
  5
1E8
  8
0
 62
     0
 10
157.763296
 20
104.306023
 30
0.0
 11
158.053274
 21
104.596001
 31
0.0
  0
LINE
  5
1E9
  8
0
 62
     0
 10
156.348027
 20
103.208952
 30
0.0
 11
156.788005
 21
103.648931
 31
0.0
  0
LINE
  5
1EA
  8
0
 62
     0
 10
158.392168
 20
105.253094
 30
0.0
 11
158.832147
 21
105.693072
 31
0.0
  0
LINE
  5
1EB
  8
0
 62
     0
 10
157.445097
 20
104.306023
 30
0.0
 11
157.735076
 21
104.596001
 31
0.0
  0
LINE
  5
1EC
  8
0
 62
     0
 10
156.029829
 20
103.208952
 30
0.0
 11
156.469807
 21
103.648931
 31
0.0
  0
LINE
  5
1ED
  8
0
 62
     0
 10
158.07397
 20
105.253094
 30
0.0
 11
158.513948
 21
105.693072
 31
0.0
  0
LINE
  5
1EE
  8
0
 62
     0
 10
157.126899
 20
104.306023
 30
0.0
 11
157.416878
 21
104.596001
 31
0.0
  0
LINE
  5
1EF
  8
0
 62
     0
 10
155.711631
 20
103.208952
 30
0.0
 11
156.318694
 21
103.816016
 31
0.0
  0
LINE
  5
1F0
  8
0
 62
     0
 10
157.755772
 20
105.253094
 30
0.0
 11
158.19575
 21
105.693072
 31
0.0
  0
LINE
  5
1F1
  8
0
 62
     0
 10
156.808701
 20
104.306023
 30
0.0
 11
157.09868
 21
104.596001
 31
0.0
  0
LINE
  5
1F2
  8
0
 62
     0
 10
155.393433
 20
103.208952
 30
0.0
 11
156.409331
 21
104.22485
 31
0.0
  0
LINE
  5
1F3
  8
0
 62
     0
 10
157.437574
 20
105.253094
 30
0.0
 11
157.877552
 21
105.693072
 31
0.0
  0
LINE
  5
1F4
  8
0
 62
     0
 10
156.490503
 20
104.306023
 30
0.0
 11
156.780482
 21
104.596001
 31
0.0
  0
LINE
  5
1F5
  8
0
 62
     0
 10
155.075235
 20
103.208952
 30
0.0
 11
156.499967
 21
104.633685
 31
0.0
  0
LINE
  5
1F6
  8
0
 62
     0
 10
157.119376
 20
105.253094
 30
0.0
 11
157.559354
 21
105.693072
 31
0.0
  0
LINE
  5
1F7
  8
0
 62
     0
 10
154.757037
 20
103.208952
 30
0.0
 11
156.590603
 21
105.042519
 31
0.0
  0
LINE
  5
1F8
  8
0
 62
     0
 10
156.801178
 20
105.253094
 30
0.0
 11
157.241156
 21
105.693072
 31
0.0
  0
LINE
  5
1F9
  8
0
 62
     0
 10
154.486944
 20
103.257057
 30
0.0
 11
156.922958
 21
105.693072
 31
0.0
  0
LINE
  5
1FA
  8
0
 62
     0
 10
154.57758
 20
103.665892
 30
0.0
 11
156.60476
 21
105.693072
 31
0.0
  0
LINE
  5
1FB
  8
0
 62
     0
 10
154.668217
 20
104.074726
 30
0.0
 11
156.286562
 21
105.693072
 31
0.0
  0
LINE
  5
1FC
  8
0
 62
     0
 10
153.484244
 20
103.208952
 30
0.0
 11
153.661705
 21
103.386413
 31
0.0
  0
LINE
  5
1FD
  8
0
 62
     0
 10
154.758853
 20
104.483561
 30
0.0
 11
155.968364
 21
105.693072
 31
0.0
  0
LINE
  5
1FE
  8
0
 62
     0
 10
153.166046
 20
103.208952
 30
0.0
 11
153.752341
 21
103.795247
 31
0.0
  0
LINE
  5
1FF
  8
0
 62
     0
 10
154.849489
 20
104.892395
 30
0.0
 11
155.650166
 21
105.693072
 31
0.0
  0
LINE
  5
200
  8
0
 62
     0
 10
152.847848
 20
103.208952
 30
0.0
 11
153.842978
 21
104.204082
 31
0.0
  0
LINE
  5
201
  8
0
 62
     0
 10
154.940126
 20
105.30123
 30
0.0
 11
155.331968
 21
105.693072
 31
0.0
  0
LINE
  5
202
  8
0
 62
     0
 10
152.52965
 20
103.208952
 30
0.0
 11
153.933614
 21
104.612916
 31
0.0
  0
LINE
  5
203
  8
0
 62
     0
 10
152.211452
 20
103.208952
 30
0.0
 11
154.024251
 21
105.021751
 31
0.0
  0
LINE
  5
204
  8
0
 62
     0
 10
151.893254
 20
103.208952
 30
0.0
 11
154.114887
 21
105.430585
 31
0.0
  0
LINE
  5
205
  8
0
 62
     0
 10
151.625533
 20
103.259429
 30
0.0
 11
154.059176
 21
105.693072
 31
0.0
  0
LINE
  5
206
  8
0
 62
     0
 10
151.458022
 20
103.410117
 30
0.0
 11
153.740978
 21
105.693072
 31
0.0
  0
LINE
  5
207
  8
0
 62
     0
 10
151.290512
 20
103.560804
 30
0.0
 11
153.42278
 21
105.693072
 31
0.0
  0
LINE
  5
208
  8
0
 62
     0
 10
151.123002
 20
103.711492
 30
0.0
 11
152.103081
 21
104.691571
 31
0.0
  0
LINE
  5
209
  8
0
 62
     0
 10
152.283137
 20
104.871627
 30
0.0
 11
153.104582
 21
105.693072
 31
0.0
  0
LINE
  5
20A
  8
0
 62
     0
 10
150.955491
 20
103.86218
 30
0.0
 11
151.916307
 21
104.822995
 31
0.0
  0
LINE
  5
20B
  8
0
 62
     0
 10
152.373773
 20
105.280462
 30
0.0
 11
152.786384
 21
105.693072
 31
0.0
  0
LINE
  5
20C
  8
0
 62
     0
 10
150.787981
 20
104.012868
 30
0.0
 11
151.729532
 21
104.954419
 31
0.0
  0
LINE
  5
20D
  8
0
 62
     0
 10
152.46441
 20
105.689296
 30
0.0
 11
152.468186
 21
105.693072
 31
0.0
  0
LINE
  5
20E
  8
0
 62
     0
 10
149.665868
 20
103.208952
 30
0.0
 11
149.862046
 21
103.405131
 31
0.0
  0
LINE
  5
20F
  8
0
 62
     0
 10
150.620471
 20
104.163555
 30
0.0
 11
151.542758
 21
105.085842
 31
0.0
  0
LINE
  5
210
  8
0
 62
     0
 10
149.34767
 20
103.208952
 30
0.0
 11
149.952683
 21
103.813965
 31
0.0
  0
LINE
  5
211
  8
0
 62
     0
 10
150.45296
 20
104.314243
 30
0.0
 11
151.355983
 21
105.217266
 31
0.0
  0
LINE
  5
212
  8
0
 62
     0
 10
149.029472
 20
103.208952
 30
0.0
 11
150.043319
 21
104.2228
 31
0.0
  0
LINE
  5
213
  8
0
 62
     0
 10
150.28545
 20
104.464931
 30
0.0
 11
151.169209
 21
105.34869
 31
0.0
  0
LINE
  5
214
  8
0
 62
     0
 10
148.711274
 20
103.208952
 30
0.0
 11
150.982435
 21
105.480113
 31
0.0
  0
LINE
  5
215
  8
0
 62
     0
 10
148.393076
 20
103.208952
 30
0.0
 11
150.79566
 21
105.611537
 31
0.0
  0
LINE
  5
216
  8
0
 62
     0
 10
148.120932
 20
103.255007
 30
0.0
 11
150.558997
 21
105.693072
 31
0.0
  0
LINE
  5
217
  8
0
 62
     0
 10
148.211569
 20
103.663842
 30
0.0
 11
150.240799
 21
105.693072
 31
0.0
  0
LINE
  5
218
  8
0
 62
     0
 10
148.302205
 20
104.072676
 30
0.0
 11
149.922601
 21
105.693072
 31
0.0
  0
LINE
  5
219
  8
0
 62
     0
 10
148.392842
 20
104.481511
 30
0.0
 11
149.604403
 21
105.693072
 31
0.0
  0
LINE
  5
21A
  8
0
 62
     0
 10
148.483478
 20
104.890345
 30
0.0
 11
149.286205
 21
105.693072
 31
0.0
  0
LINE
  5
21B
  8
0
 62
     0
 10
148.574115
 20
105.29918
 30
0.0
 11
148.968007
 21
105.693072
 31
0.0
  0
LINE
  5
21C
  8
0
 62
     0
 10
173.820613
 20
104.13524
 30
0.0
 11
174.110591
 21
104.425218
 31
0.0
  0
LINE
  5
21D
  8
0
 62
     0
 10
174.86666
 20
105.181287
 30
0.0
 11
175.378445
 21
105.693072
 31
0.0
  0
LINE
  5
21E
  8
0
 62
     0
 10
174.138811
 20
104.13524
 30
0.0
 11
174.429241
 21
104.42567
 31
0.0
  0
LINE
  5
21F
  8
0
 62
     0
 10
174.946739
 20
104.943167
 30
0.0
 11
175.696643
 21
105.693072
 31
0.0
  0
LINE
  5
220
  8
0
 62
     0
 10
174.456256
 20
104.134486
 30
0.0
 11
176.014671
 21
105.692902
 31
0.0
  0
LINE
  5
221
  8
0
 62
     0
 10
174.630516
 20
103.990548
 30
0.0
 11
176.298943
 21
105.658976
 31
0.0
  0
LINE
  5
222
  8
0
 62
     0
 10
174.613
 20
103.654835
 30
0.0
 11
176.535113
 21
105.576948
 31
0.0
  0
LINE
  5
223
  8
0
 62
     0
 10
174.605261
 20
103.328897
 30
0.0
 11
176.725075
 21
105.448711
 31
0.0
  0
LINE
  5
224
  8
0
 62
     0
 10
174.803514
 20
103.208952
 30
0.0
 11
176.8509
 21
105.256338
 31
0.0
  0
LINE
  5
225
  8
0
 62
     0
 10
175.121712
 20
103.208952
 30
0.0
 11
176.221213
 21
104.308453
 31
0.0
  0
LINE
  5
226
  8
0
 62
     0
 10
176.266083
 20
104.353323
 30
0.0
 11
176.834229
 21
104.921469
 31
0.0
  0
LINE
  5
227
  8
0
 62
     0
 10
175.43991
 20
103.208952
 30
0.0
 11
176.345758
 21
104.1148
 31
0.0
  0
LINE
  5
228
  8
0
 62
     0
 10
177.629233
 20
105.398275
 30
0.0
 11
177.92403
 21
105.693072
 31
0.0
  0
LINE
  5
229
  8
0
 62
     0
 10
175.758108
 20
103.208952
 30
0.0
 11
176.329942
 21
103.780786
 31
0.0
  0
LINE
  5
22A
  8
0
 62
     0
 10
177.538596
 20
104.98944
 30
0.0
 11
178.242228
 21
105.693072
 31
0.0
  0
LINE
  5
22B
  8
0
 62
     0
 10
176.076306
 20
103.208952
 30
0.0
 11
176.307193
 21
103.439839
 31
0.0
  0
LINE
  5
22C
  8
0
 62
     0
 10
177.44796
 20
104.580606
 30
0.0
 11
178.560426
 21
105.693072
 31
0.0
  0
LINE
  5
22D
  8
0
 62
     0
 10
177.357323
 20
104.171772
 30
0.0
 11
178.878624
 21
105.693072
 31
0.0
  0
LINE
  5
22E
  8
0
 62
     0
 10
177.266687
 20
103.762937
 30
0.0
 11
179.196822
 21
105.693072
 31
0.0
  0
LINE
  5
22F
  8
0
 62
     0
 10
177.176051
 20
103.354103
 30
0.0
 11
179.370347
 21
105.548399
 31
0.0
  0
LINE
  5
230
  8
0
 62
     0
 10
177.349098
 20
103.208952
 30
0.0
 11
179.27971
 21
105.139564
 31
0.0
  0
LINE
  5
231
  8
0
 62
     0
 10
177.667296
 20
103.208952
 30
0.0
 11
179.189074
 21
104.73073
 31
0.0
  0
LINE
  5
232
  8
0
 62
     0
 10
177.985494
 20
103.208952
 30
0.0
 11
179.098437
 21
104.321895
 31
0.0
  0
LINE
  5
233
  8
0
 62
     0
 10
180.395067
 20
105.618525
 30
0.0
 11
180.469614
 21
105.693072
 31
0.0
  0
LINE
  5
234
  8
0
 62
     0
 10
178.303692
 20
103.208952
 30
0.0
 11
179.007801
 21
103.913061
 31
0.0
  0
LINE
  5
235
  8
0
 62
     0
 10
180.30443
 20
105.20969
 30
0.0
 11
180.787812
 21
105.693072
 31
0.0
  0
LINE
  5
236
  8
0
 62
     0
 10
178.62189
 20
103.208952
 30
0.0
 11
178.917164
 21
103.504226
 31
0.0
  0
LINE
  5
237
  8
0
 62
     0
 10
180.213794
 20
104.800856
 30
0.0
 11
181.10601
 21
105.693072
 31
0.0
  0
LINE
  5
238
  8
0
 62
     0
 10
180.123158
 20
104.392021
 30
0.0
 11
181.424208
 21
105.693072
 31
0.0
  0
LINE
  5
239
  8
0
 62
     0
 10
180.032521
 20
103.983187
 30
0.0
 11
181.742406
 21
105.693072
 31
0.0
  0
LINE
  5
23A
  8
0
 62
     0
 10
179.941885
 20
103.574352
 30
0.0
 11
182.03644
 21
105.668908
 31
0.0
  0
LINE
  5
23B
  8
0
 62
     0
 10
179.894683
 20
103.208952
 30
0.0
 11
181.945804
 21
105.260073
 31
0.0
  0
LINE
  5
23C
  8
0
 62
     0
 10
180.212881
 20
103.208952
 30
0.0
 11
181.857718
 21
104.853789
 31
0.0
  0
LINE
  5
23D
  8
0
 62
     0
 10
180.531079
 20
103.208952
 30
0.0
 11
182.412196
 21
105.09007
 31
0.0
  0
LINE
  5
23E
  8
0
 62
     0
 10
180.849277
 20
103.208952
 30
0.0
 11
182.966675
 21
105.326351
 31
0.0
  0
LINE
  5
23F
  8
0
 62
     0
 10
181.167475
 20
103.208952
 30
0.0
 11
181.583258
 21
103.624735
 31
0.0
  0
LINE
  5
240
  8
0
 62
     0
 10
181.907125
 20
103.948602
 30
0.0
 11
183.521154
 21
105.562631
 31
0.0
  0
LINE
  5
241
  8
0
 62
     0
 10
181.485673
 20
103.208952
 30
0.0
 11
181.492621
 21
103.215901
 31
0.0
  0
LINE
  5
242
  8
0
 62
     0
 10
182.38713
 20
104.110409
 30
0.0
 11
183.969793
 21
105.693072
 31
0.0
  0
LINE
  5
243
  8
0
 62
     0
 10
182.545159
 20
103.95024
 30
0.0
 11
184.287991
 21
105.693072
 31
0.0
  0
LINE
  5
244
  8
0
 62
     0
 10
182.703188
 20
103.790071
 30
0.0
 11
184.606189
 21
105.693072
 31
0.0
  0
LINE
  5
245
  8
0
 62
     0
 10
182.861217
 20
103.629902
 30
0.0
 11
184.033479
 21
104.802165
 31
0.0
  0
LINE
  5
246
  8
0
 62
     0
 10
184.12504
 20
104.893725
 30
0.0
 11
184.924387
 21
105.693072
 31
0.0
  0
LINE
  5
247
  8
0
 62
     0
 10
183.019246
 20
103.469733
 30
0.0
 11
184.191508
 21
104.641995
 31
0.0
  0
LINE
  5
248
  8
0
 62
     0
 10
184.679519
 20
105.130006
 30
0.0
 11
185.242585
 21
105.693072
 31
0.0
  0
LINE
  5
249
  8
0
 62
     0
 10
183.177275
 20
103.309564
 30
0.0
 11
184.349537
 21
104.481826
 31
0.0
  0
LINE
  5
24A
  8
0
 62
     0
 10
185.233998
 20
105.366287
 30
0.0
 11
185.560783
 21
105.693072
 31
0.0
  0
LINE
  5
24B
  8
0
 62
     0
 10
183.394861
 20
103.208952
 30
0.0
 11
184.507566
 21
104.321657
 31
0.0
  0
LINE
  5
24C
  8
0
 62
     0
 10
185.788476
 20
105.602567
 30
0.0
 11
185.878981
 21
105.693072
 31
0.0
  0
LINE
  5
24D
  8
0
 62
     0
 10
183.713059
 20
103.208952
 30
0.0
 11
184.665595
 21
104.161488
 31
0.0
  0
LINE
  5
24E
  8
0
 62
     0
 10
184.031257
 20
103.208952
 30
0.0
 11
184.823624
 21
104.001319
 31
0.0
  0
LINE
  5
24F
  8
0
 62
     0
 10
184.349455
 20
103.208952
 30
0.0
 11
184.981653
 21
103.84115
 31
0.0
  0
LINE
  5
250
  8
0
 62
     0
 10
184.667653
 20
103.208952
 30
0.0
 11
185.139682
 21
103.680981
 31
0.0
  0
LINE
  5
251
  8
0
 62
     0
 10
184.985851
 20
103.208952
 30
0.0
 11
185.297711
 21
103.520812
 31
0.0
  0
LINE
  5
252
  8
0
 62
     0
 10
185.30405
 20
103.208952
 30
0.0
 11
185.45574
 21
103.360643
 31
0.0
  0
LINE
  5
253
  8
0
 62
     0
 10
190.307701
 20
105.66702
 30
0.0
 11
190.334482
 21
105.693801
 31
0.0
  0
LINE
  5
254
  8
0
 62
     0
 10
189.353107
 20
104.394227
 30
0.0
 11
190.65268
 21
105.693801
 31
0.0
  0
LINE
  5
255
  8
0
 62
     0
 10
188.48603
 20
103.208952
 30
0.0
 11
190.970879
 21
105.693801
 31
0.0
  0
LINE
  5
256
  8
0
 62
     0
 10
188.804228
 20
103.208952
 30
0.0
 11
191.289077
 21
105.693801
 31
0.0
  0
LINE
  5
257
  8
0
 62
     0
 10
189.122426
 20
103.208952
 30
0.0
 11
191.607275
 21
105.693801
 31
0.0
  0
LINE
  5
258
  8
0
 62
     0
 10
189.440624
 20
103.208952
 30
0.0
 11
191.925473
 21
105.693801
 31
0.0
  0
LINE
  5
259
  8
0
 62
     0
 10
189.758822
 20
103.208952
 30
0.0
 11
191.284682
 21
104.734812
 31
0.0
  0
LINE
  5
25A
  8
0
 62
     0
 10
191.828596
 20
105.278726
 30
0.0
 11
192.243671
 21
105.693801
 31
0.0
  0
LINE
  5
25B
  8
0
 62
     0
 10
190.07702
 20
103.208952
 30
0.0
 11
190.330088
 21
103.46202
 31
0.0
  0
LINE
  5
25C
  8
0
 62
     0
 10
191.892236
 20
105.024168
 30
0.0
 11
192.561869
 21
105.693801
 31
0.0
  0
LINE
  5
25D
  8
0
 62
     0
 10
190.557052
 20
103.688984
 30
0.0
 11
190.93024
 21
104.062171
 31
0.0
  0
LINE
  5
25E
  8
0
 62
     0
 10
190.87525
 20
103.688984
 30
0.0
 11
191.248438
 21
104.062171
 31
0.0
  0
LINE
  5
25F
  8
0
 62
     0
 10
191.955876
 20
104.76961
 30
0.0
 11
192.880067
 21
105.693801
 31
0.0
  0
LINE
  5
260
  8
0
 62
     0
 10
191.193448
 20
103.688984
 30
0.0
 11
191.566636
 21
104.062171
 31
0.0
  0
LINE
  5
261
  8
0
 62
     0
 10
192.019515
 20
104.515051
 30
0.0
 11
193.198265
 21
105.693801
 31
0.0
  0
LINE
  5
262
  8
0
 62
     0
 10
191.511646
 20
103.688984
 30
0.0
 11
191.884834
 21
104.062171
 31
0.0
  0
LINE
  5
263
  8
0
 62
     0
 10
192.083155
 20
104.260493
 30
0.0
 11
193.329286
 21
105.506623
 31
0.0
  0
LINE
  5
264
  8
0
 62
     0
 10
191.829844
 20
103.688984
 30
0.0
 11
193.392925
 21
105.252065
 31
0.0
  0
LINE
  5
265
  8
0
 62
     0
 10
192.148042
 20
103.688984
 30
0.0
 11
193.456565
 21
104.997506
 31
0.0
  0
LINE
  5
266
  8
0
 62
     0
 10
192.274074
 20
103.496817
 30
0.0
 11
193.520204
 21
104.742948
 31
0.0
  0
LINE
  5
267
  8
0
 62
     0
 10
192.337713
 20
103.242259
 30
0.0
 11
193.583844
 21
104.48839
 31
0.0
  0
LINE
  5
268
  8
0
 62
     0
 10
192.622605
 20
103.208952
 30
0.0
 11
193.647484
 21
104.233831
 31
0.0
  0
LINE
  5
269
  8
0
 62
     0
 10
192.940803
 20
103.208952
 30
0.0
 11
193.711123
 21
103.979273
 31
0.0
  0
LINE
  5
26A
  8
0
 62
     0
 10
194.864033
 20
105.132182
 30
0.0
 11
195.244054
 21
105.512203
 31
0.0
  0
LINE
  5
26B
  8
0
 62
     0
 10
193.259001
 20
103.208952
 30
0.0
 11
193.774763
 21
103.724714
 31
0.0
  0
LINE
  5
26C
  8
0
 62
     0
 10
194.795915
 20
104.745866
 30
0.0
 11
195.618586
 21
105.568537
 31
0.0
  0
LINE
  5
26D
  8
0
 62
     0
 10
193.577199
 20
103.208952
 30
0.0
 11
193.838402
 21
103.470156
 31
0.0
  0
LINE
  5
26E
  8
0
 62
     0
 10
194.727797
 20
104.35955
 30
0.0
 11
195.981303
 21
105.613056
 31
0.0
  0
LINE
  5
26F
  8
0
 62
     0
 10
193.895397
 20
103.208952
 30
0.0
 11
193.902042
 21
103.215597
 31
0.0
  0
LINE
  5
270
  8
0
 62
     0
 10
194.659679
 20
103.973234
 30
0.0
 11
196.333358
 21
105.646913
 31
0.0
  0
LINE
  5
271
  8
0
 62
     0
 10
194.615277
 20
103.610634
 30
0.0
 11
196.67571
 21
105.671067
 31
0.0
  0
LINE
  5
272
  8
0
 62
     0
 10
194.737894
 20
103.415053
 30
0.0
 11
197.009165
 21
105.686324
 31
0.0
  0
LINE
  5
273
  8
0
 62
     0
 10
194.983951
 20
103.342913
 30
0.0
 11
196.340819
 21
104.69978
 31
0.0
  0
LINE
  5
274
  8
0
 62
     0
 10
196.88271
 20
105.241671
 30
0.0
 11
197.334409
 21
105.69337
 31
0.0
  0
LINE
  5
275
  8
0
 62
     0
 10
195.265203
 20
103.305966
 30
0.0
 11
196.272701
 21
104.313464
 31
0.0
  0
LINE
  5
276
  8
0
 62
     0
 10
197.219219
 20
105.259982
 30
0.0
 11
197.652032
 21
105.692795
 31
0.0
  0
LINE
  5
277
  8
0
 62
     0
 10
195.551822
 20
103.274387
 30
0.0
 11
196.225094
 21
103.947659
 31
0.0
  0
LINE
  5
278
  8
0
 62
     0
 10
197.526321
 20
105.248886
 30
0.0
 11
197.962545
 21
105.68511
 31
0.0
  0
LINE
  5
279
  8
0
 62
     0
 10
195.844088
 20
103.248455
 30
0.0
 11
196.343872
 21
103.748239
 31
0.0
  0
LINE
  5
27A
  8
0
 62
     0
 10
197.810421
 20
105.214788
 30
0.0
 11
198.266395
 21
105.670762
 31
0.0
  0
LINE
  5
27B
  8
0
 62
     0
 10
196.142312
 20
103.228481
 30
0.0
 11
196.588304
 21
103.674473
 31
0.0
  0
LINE
  5
27C
  8
0
 62
     0
 10
198.025995
 20
105.112164
 30
0.0
 11
198.563973
 21
105.650142
 31
0.0
  0
LINE
  5
27D
  8
0
 62
     0
 10
196.446847
 20
103.214818
 30
0.0
 11
196.883622
 21
103.651593
 31
0.0
  0
LINE
  5
27E
  8
0
 62
     0
 10
198.196022
 20
104.963993
 30
0.0
 11
198.855628
 21
105.623599
 31
0.0
  0
LINE
  5
27F
  8
0
 62
     0
 10
197.353782
 20
104.121752
 30
0.0
 11
197.533406
 21
104.301376
 31
0.0
  0
LINE
  5
280
  8
0
 62
     0
 10
196.75809
 20
103.207862
 30
0.0
 11
197.204833
 21
103.654605
 31
0.0
  0
LINE
  5
281
  8
0
 62
     0
 10
198.51422
 20
104.963993
 30
0.0
 11
199.141667
 21
105.59144
 31
0.0
  0
LINE
  5
282
  8
0
 62
     0
 10
197.628876
 20
104.078649
 30
0.0
 11
197.851604
 21
104.301376
 31
0.0
  0
LINE
  5
283
  8
0
 62
     0
 10
197.076493
 20
103.208068
 30
0.0
 11
197.560393
 21
103.691967
 31
0.0
  0
LINE
  5
284
  8
0
 62
     0
 10
198.832418
 20
104.963993
 30
0.0
 11
199.422367
 21
105.553941
 31
0.0
  0
LINE
  5
285
  8
0
 62
     0
 10
197.947074
 20
104.078649
 30
0.0
 11
198.169802
 21
104.301376
 31
0.0
  0
LINE
  5
286
  8
0
 62
     0
 10
197.402575
 20
103.215952
 30
0.0
 11
198.488
 21
104.301376
 31
0.0
  0
LINE
  5
287
  8
0
 62
     0
 10
199.150616
 20
104.963993
 30
0.0
 11
199.638742
 21
105.452118
 31
0.0
  0
LINE
  5
288
  8
0
 62
     0
 10
197.736936
 20
103.232115
 30
0.0
 11
198.806198
 21
104.301376
 31
0.0
  0
LINE
  5
289
  8
0
 62
     0
 10
199.468814
 20
104.963993
 30
0.0
 11
199.719549
 21
105.214728
 31
0.0
  0
LINE
  5
28A
  8
0
 62
     0
 10
198.031972
 20
103.208952
 30
0.0
 11
199.124396
 21
104.301376
 31
0.0
  0
LINE
  5
28B
  8
0
 62
     0
 10
198.35017
 20
103.208952
 30
0.0
 11
199.442594
 21
104.301376
 31
0.0
  0
LINE
  5
28C
  8
0
 62
     0
 10
198.668368
 20
103.208952
 30
0.0
 11
199.516647
 21
104.057232
 31
0.0
  0
LINE
  5
28D
  8
0
 62
     0
 10
198.986566
 20
103.208952
 30
0.0
 11
199.448529
 21
103.670916
 31
0.0
  0
LINE
  5
28E
  8
0
 62
     0
 10
199.304764
 20
103.208952
 30
0.0
 11
199.380411
 21
103.2846
 31
0.0
  0
LINE
  5
28F
  8
0
 62
     0
 10
174.896145
 20
103.208952
 30
0.0
 11
174.602537
 21
103.50256
 31
0.0
  0
LINE
  5
290
  8
0
 62
     0
 10
173.177644
 20
104.927453
 30
0.0
 11
172.412025
 21
105.693072
 31
0.0
  0
LINE
  5
291
  8
0
 62
     0
 10
173.969857
 20
104.13524
 30
0.0
 11
173.679879
 21
104.425218
 31
0.0
  0
LINE
  5
292
  8
0
 62
     0
 10
173.651659
 20
104.13524
 30
0.0
 11
173.361681
 21
104.425218
 31
0.0
  0
LINE
  5
293
  8
0
 62
     0
 10
173.119903
 20
104.666996
 30
0.0
 11
172.093827
 21
105.693072
 31
0.0
  0
LINE
  5
294
  8
0
 62
     0
 10
173.333461
 20
104.13524
 30
0.0
 11
171.775629
 21
105.693072
 31
0.0
  0
LINE
  5
295
  8
0
 62
     0
 10
173.015263
 20
104.13524
 30
0.0
 11
171.606498
 21
105.544005
 31
0.0
  0
LINE
  5
296
  8
0
 62
     0
 10
172.946677
 20
103.885628
 30
0.0
 11
171.548757
 21
105.283548
 31
0.0
  0
LINE
  5
297
  8
0
 62
     0
 10
172.888936
 20
103.625171
 30
0.0
 11
171.491015
 21
105.023092
 31
0.0
  0
LINE
  5
298
  8
0
 62
     0
 10
171.046222
 20
105.467885
 30
0.0
 11
170.821035
 21
105.693072
 31
0.0
  0
LINE
  5
299
  8
0
 62
     0
 10
172.831194
 20
103.364715
 30
0.0
 11
171.433273
 21
104.762636
 31
0.0
  0
LINE
  5
29A
  8
0
 62
     0
 10
170.98848
 20
105.207429
 30
0.0
 11
170.502837
 21
105.693072
 31
0.0
  0
LINE
  5
29B
  8
0
 62
     0
 10
172.668758
 20
103.208952
 30
0.0
 11
171.375531
 21
104.502179
 31
0.0
  0
LINE
  5
29C
  8
0
 62
     0
 10
170.805669
 20
105.072042
 30
0.0
 11
170.184639
 21
105.693072
 31
0.0
  0
LINE
  5
29D
  8
0
 62
     0
 10
172.35056
 20
103.208952
 30
0.0
 11
171.317789
 21
104.241723
 31
0.0
  0
LINE
  5
29E
  8
0
 62
     0
 10
170.487471
 20
105.072042
 30
0.0
 11
169.866441
 21
105.693072
 31
0.0
  0
LINE
  5
29F
  8
0
 62
     0
 10
172.032362
 20
103.208952
 30
0.0
 11
171.260048
 21
103.981267
 31
0.0
  0
LINE
  5
2A0
  8
0
 62
     0
 10
170.169273
 20
105.072042
 30
0.0
 11
169.548243
 21
105.693072
 31
0.0
  0
LINE
  5
2A1
  8
0
 62
     0
 10
171.714164
 20
103.208952
 30
0.0
 11
171.202306
 21
103.720811
 31
0.0
  0
LINE
  5
2A2
  8
0
 62
     0
 10
169.851075
 20
105.072042
 30
0.0
 11
169.230045
 21
105.693072
 31
0.0
  0
LINE
  5
2A3
  8
0
 62
     0
 10
171.395966
 20
103.208952
 30
0.0
 11
171.144564
 21
103.460354
 31
0.0
  0
LINE
  5
2A4
  8
0
 62
     0
 10
169.532876
 20
105.072042
 30
0.0
 11
168.911847
 21
105.693072
 31
0.0
  0
LINE
  5
2A5
  8
0
 62
     0
 10
169.307651
 20
104.97907
 30
0.0
 11
168.593648
 21
105.693072
 31
0.0
  0
LINE
  5
2A6
  8
0
 62
     0
 10
169.249909
 20
104.718614
 30
0.0
 11
168.27545
 21
105.693072
 31
0.0
  0
LINE
  5
2A7
  8
0
 62
     0
 10
169.192167
 20
104.458157
 30
0.0
 11
167.957252
 21
105.693072
 31
0.0
  0
LINE
  5
2A8
  8
0
 62
     0
 10
169.134425
 20
104.197701
 30
0.0
 11
167.639054
 21
105.693072
 31
0.0
  0
LINE
  5
2A9
  8
0
 62
     0
 10
169.076683
 20
103.937245
 30
0.0
 11
167.320856
 21
105.693072
 31
0.0
  0
LINE
  5
2AA
  8
0
 62
     0
 10
169.018942
 20
103.676788
 30
0.0
 11
167.002658
 21
105.693072
 31
0.0
  0
LINE
  5
2AB
  8
0
 62
     0
 10
168.9612
 20
103.416332
 30
0.0
 11
167.563279
 21
104.814253
 31
0.0
  0
LINE
  5
2AC
  8
0
 62
     0
 10
167.30549
 20
105.072042
 30
0.0
 11
166.68446
 21
105.693072
 31
0.0
  0
LINE
  5
2AD
  8
0
 62
     0
 10
168.850382
 20
103.208952
 30
0.0
 11
167.505537
 21
104.553797
 31
0.0
  0
LINE
  5
2AE
  8
0
 62
     0
 10
166.987292
 20
105.072042
 30
0.0
 11
166.366262
 21
105.693072
 31
0.0
  0
LINE
  5
2AF
  8
0
 62
     0
 10
168.532184
 20
103.208952
 30
0.0
 11
167.447796
 21
104.29334
 31
0.0
  0
LINE
  5
2B0
  8
0
 62
     0
 10
166.669094
 20
105.072042
 30
0.0
 11
166.176959
 21
105.564177
 31
0.0
  0
LINE
  5
2B1
  8
0
 62
     0
 10
168.213986
 20
103.208952
 30
0.0
 11
167.390054
 21
104.032884
 31
0.0
  0
LINE
  5
2B2
  8
0
 62
     0
 10
165.749267
 20
105.673671
 30
0.0
 11
165.729866
 21
105.693072
 31
0.0
  0
LINE
  5
2B3
  8
0
 62
     0
 10
166.350896
 20
105.072042
 30
0.0
 11
166.119217
 21
105.303721
 31
0.0
  0
LINE
  5
2B4
  8
0
 62
     0
 10
167.895788
 20
103.208952
 30
0.0
 11
167.332312
 21
103.772428
 31
0.0
  0
LINE
  5
2B5
  8
0
 62
     0
 10
165.691525
 20
105.413214
 30
0.0
 11
165.411668
 21
105.693072
 31
0.0
  0
LINE
  5
2B6
  8
0
 62
     0
 10
167.57759
 20
103.208952
 30
0.0
 11
167.27457
 21
103.511971
 31
0.0
  0
LINE
  5
2B7
  8
0
 62
     0
 10
165.633784
 20
105.152758
 30
0.0
 11
165.09347
 21
105.693072
 31
0.0
  0
LINE
  5
2B8
  8
0
 62
     0
 10
167.259392
 20
103.208952
 30
0.0
 11
167.216829
 21
103.251515
 31
0.0
  0
LINE
  5
2B9
  8
0
 62
     0
 10
165.576042
 20
104.892302
 30
0.0
 11
164.775272
 21
105.693072
 31
0.0
  0
LINE
  5
2BA
  8
0
 62
     0
 10
165.5183
 20
104.631846
 30
0.0
 11
164.457074
 21
105.693072
 31
0.0
  0
LINE
  5
2BB
  8
0
 62
     0
 10
165.460558
 20
104.371389
 30
0.0
 11
164.138876
 21
105.693072
 31
0.0
  0
LINE
  5
2BC
  8
0
 62
     0
 10
165.402817
 20
104.110933
 30
0.0
 11
164.008428
 21
105.505322
 31
0.0
  0
LINE
  5
2BD
  8
0
 62
     0
 10
165.345075
 20
103.850477
 30
0.0
 11
163.950686
 21
105.244865
 31
0.0
  0
LINE
  5
2BE
  8
0
 62
     0
 10
165.213808
 20
103.663545
 30
0.0
 11
163.892945
 21
104.984409
 31
0.0
  0
LINE
  5
2BF
  8
0
 62
     0
 10
165.017448
 20
103.541707
 30
0.0
 11
163.835203
 21
104.723953
 31
0.0
  0
LINE
  5
2C0
  8
0
 62
     0
 10
164.802652
 20
103.438305
 30
0.0
 11
163.777461
 21
104.463496
 31
0.0
  0
LINE
  5
2C1
  8
0
 62
     0
 10
164.567173
 20
103.355586
 30
0.0
 11
163.719719
 21
104.20304
 31
0.0
  0
LINE
  5
2C2
  8
0
 62
     0
 10
164.315183
 20
103.289379
 30
0.0
 11
163.618712
 21
103.98585
 31
0.0
  0
LINE
  5
2C3
  8
0
 62
     0
 10
162.118619
 20
105.485943
 30
0.0
 11
161.911489
 21
105.693072
 31
0.0
  0
LINE
  5
2C4
  8
0
 62
     0
 10
164.051144
 20
103.235219
 30
0.0
 11
163.422176
 21
103.864188
 31
0.0
  0
LINE
  5
2C5
  8
0
 62
     0
 10
162.060877
 20
105.225486
 30
0.0
 11
161.593291
 21
105.693072
 31
0.0
  0
LINE
  5
2C6
  8
0
 62
     0
 10
163.77367
 20
103.194495
 30
0.0
 11
163.177404
 21
103.790761
 31
0.0
  0
LINE
  5
2C7
  8
0
 62
     0
 10
162.003135
 20
104.96503
 30
0.0
 11
161.275093
 21
105.693072
 31
0.0
  0
LINE
  5
2C8
  8
0
 62
     0
 10
163.485182
 20
103.164785
 30
0.0
 11
162.893835
 21
103.756132
 31
0.0
  0
LINE
  5
2C9
  8
0
 62
     0
 10
161.945393
 20
104.704574
 30
0.0
 11
160.956895
 21
105.693072
 31
0.0
  0
LINE
  5
2CA
  8
0
 62
     0
 10
163.187779
 20
103.14399
 30
0.0
 11
162.571275
 21
103.760495
 31
0.0
  0
LINE
  5
2CB
  8
0
 62
     0
 10
161.887652
 20
104.444117
 30
0.0
 11
160.638697
 21
105.693072
 31
0.0
  0
LINE
  5
2CC
  8
0
 62
     0
 10
162.88065
 20
103.132921
 30
0.0
 11
162.17665
 21
103.836921
 31
0.0
  0
LINE
  5
2CD
  8
0
 62
     0
 10
161.82991
 20
104.183661
 30
0.0
 11
160.43551
 21
105.578061
 31
0.0
  0
LINE
  5
2CE
  8
0
 62
     0
 10
162.562817
 20
103.132556
 30
0.0
 11
160.377768
 21
105.317605
 31
0.0
  0
LINE
  5
2CF
  8
0
 62
     0
 10
162.233074
 20
103.144101
 30
0.0
 11
160.320026
 21
105.057149
 31
0.0
  0
LINE
  5
2D0
  8
0
 62
     0
 10
159.684608
 20
105.692567
 30
0.0
 11
159.684103
 21
105.693072
 31
0.0
  0
LINE
  5
2D1
  8
0
 62
     0
 10
161.889919
 20
103.169058
 30
0.0
 11
160.262284
 21
104.796692
 31
0.0
  0
LINE
  5
2D2
  8
0
 62
     0
 10
159.626866
 20
105.432111
 30
0.0
 11
159.365905
 21
105.693072
 31
0.0
  0
LINE
  5
2D3
  8
0
 62
     0
 10
161.530904
 20
103.209875
 30
0.0
 11
160.204543
 21
104.536236
 31
0.0
  0
LINE
  5
2D4
  8
0
 62
     0
 10
159.487685
 20
105.253094
 30
0.0
 11
159.047707
 21
105.693072
 31
0.0
  0
LINE
  5
2D5
  8
0
 62
     0
 10
161.140832
 20
103.281749
 30
0.0
 11
160.146801
 21
104.27578
 31
0.0
  0
LINE
  5
2D6
  8
0
 62
     0
 10
159.169487
 20
105.253094
 30
0.0
 11
158.729509
 21
105.693072
 31
0.0
  0
LINE
  5
2D7
  8
0
 62
     0
 10
160.695959
 20
103.408424
 30
0.0
 11
160.089059
 21
104.015324
 31
0.0
  0
LINE
  5
2D8
  8
0
 62
     0
 10
158.851289
 20
105.253094
 30
0.0
 11
158.411311
 21
105.693072
 31
0.0
  0
LINE
  5
2D9
  8
0
 62
     0
 10
159.205273
 20
104.580911
 30
0.0
 11
159.190183
 21
104.596001
 31
0.0
  0
LINE
  5
2DA
  8
0
 62
     0
 10
158.533091
 20
105.253094
 30
0.0
 11
158.093113
 21
105.693072
 31
0.0
  0
LINE
  5
2DB
  8
0
 62
     0
 10
159.147532
 20
104.320455
 30
0.0
 11
158.871985
 21
104.596001
 31
0.0
  0
LINE
  5
2DC
  8
0
 62
     0
 10
158.214893
 20
105.253094
 30
0.0
 11
157.774915
 21
105.693072
 31
0.0
  0
LINE
  5
2DD
  8
0
 62
     0
 10
158.843766
 20
104.306023
 30
0.0
 11
158.553787
 21
104.596001
 31
0.0
  0
LINE
  5
2DE
  8
0
 62
     0
 10
157.896695
 20
105.253094
 30
0.0
 11
157.456717
 21
105.693072
 31
0.0
  0
LINE
  5
2DF
  8
0
 62
     0
 10
159.222674
 20
103.608917
 30
0.0
 11
159.18266
 21
103.648931
 31
0.0
  0
LINE
  5
2E0
  8
0
 62
     0
 10
157.578497
 20
105.253094
 30
0.0
 11
157.138519
 21
105.693072
 31
0.0
  0
LINE
  5
2E1
  8
0
 62
     0
 10
158.525568
 20
104.306023
 30
0.0
 11
158.235589
 21
104.596001
 31
0.0
  0
LINE
  5
2E2
  8
0
 62
     0
 10
159.164932
 20
103.348461
 30
0.0
 11
158.864462
 21
103.648931
 31
0.0
  0
LINE
  5
2E3
  8
0
 62
     0
 10
157.260299
 20
105.253094
 30
0.0
 11
156.820321
 21
105.693072
 31
0.0
  0
LINE
  5
2E4
  8
0
 62
     0
 10
158.20737
 20
104.306023
 30
0.0
 11
157.917391
 21
104.596001
 31
0.0
  0
LINE
  5
2E5
  8
0
 62
     0
 10
158.986242
 20
103.208952
 30
0.0
 11
158.546264
 21
103.648931
 31
0.0
  0
LINE
  5
2E6
  8
0
 62
     0
 10
156.942101
 20
105.253094
 30
0.0
 11
156.502123
 21
105.693072
 31
0.0
  0
LINE
  5
2E7
  8
0
 62
     0
 10
157.889172
 20
104.306023
 30
0.0
 11
157.599193
 21
104.596001
 31
0.0
  0
LINE
  5
2E8
  8
0
 62
     0
 10
158.668044
 20
103.208952
 30
0.0
 11
158.228066
 21
103.648931
 31
0.0
  0
LINE
  5
2E9
  8
0
 62
     0
 10
156.634858
 20
105.242138
 30
0.0
 11
156.183924
 21
105.693072
 31
0.0
  0
LINE
  5
2EA
  8
0
 62
     0
 10
157.570974
 20
104.306023
 30
0.0
 11
157.280995
 21
104.596001
 31
0.0
  0
LINE
  5
2EB
  8
0
 62
     0
 10
158.349846
 20
103.208952
 30
0.0
 11
157.909868
 21
103.648931
 31
0.0
  0
LINE
  5
2EC
  8
0
 62
     0
 10
156.577116
 20
104.981682
 30
0.0
 11
155.865726
 21
105.693072
 31
0.0
  0
LINE
  5
2ED
  8
0
 62
     0
 10
157.252775
 20
104.306023
 30
0.0
 11
156.962797
 21
104.596001
 31
0.0
  0
LINE
  5
2EE
  8
0
 62
     0
 10
158.031648
 20
103.208952
 30
0.0
 11
157.59167
 21
103.648931
 31
0.0
  0
LINE
  5
2EF
  8
0
 62
     0
 10
156.519374
 20
104.721226
 30
0.0
 11
155.547528
 21
105.693072
 31
0.0
  0
LINE
  5
2F0
  8
0
 62
     0
 10
156.934577
 20
104.306023
 30
0.0
 11
156.644599
 21
104.596001
 31
0.0
  0
LINE
  5
2F1
  8
0
 62
     0
 10
157.71345
 20
103.208952
 30
0.0
 11
157.273472
 21
103.648931
 31
0.0
  0
LINE
  5
2F2
  8
0
 62
     0
 10
156.616379
 20
104.306023
 30
0.0
 11
155.22933
 21
105.693072
 31
0.0
  0
LINE
  5
2F3
  8
0
 62
     0
 10
157.395252
 20
103.208952
 30
0.0
 11
156.955274
 21
103.648931
 31
0.0
  0
LINE
  5
2F4
  8
0
 62
     0
 10
156.403891
 20
104.200313
 30
0.0
 11
155.00597
 21
105.598234
 31
0.0
  0
LINE
  5
2F5
  8
0
 62
     0
 10
157.077054
 20
103.208952
 30
0.0
 11
156.637075
 21
103.648931
 31
0.0
  0
LINE
  5
2F6
  8
0
 62
     0
 10
156.346149
 20
103.939857
 30
0.0
 11
154.948228
 21
105.337778
 31
0.0
  0
LINE
  5
2F7
  8
0
 62
     0
 10
156.758856
 20
103.208952
 30
0.0
 11
156.318877
 21
103.648931
 31
0.0
  0
LINE
  5
2F8
  8
0
 62
     0
 10
156.288407
 20
103.679401
 30
0.0
 11
154.890487
 21
105.077322
 31
0.0
  0
LINE
  5
2F9
  8
0
 62
     0
 10
156.440658
 20
103.208952
 30
0.0
 11
154.832745
 21
104.816865
 31
0.0
  0
LINE
  5
2FA
  8
0
 62
     0
 10
154.133784
 20
105.515826
 30
0.0
 11
153.956538
 21
105.693072
 31
0.0
  0
LINE
  5
2FB
  8
0
 62
     0
 10
156.12246
 20
103.208952
 30
0.0
 11
154.775003
 21
104.556409
 31
0.0
  0
LINE
  5
2FC
  8
0
 62
     0
 10
154.076043
 20
105.255369
 30
0.0
 11
153.63834
 21
105.693072
 31
0.0
  0
LINE
  5
2FD
  8
0
 62
     0
 10
155.804262
 20
103.208952
 30
0.0
 11
154.717261
 21
104.295953
 31
0.0
  0
LINE
  5
2FE
  8
0
 62
     0
 10
154.018301
 20
104.994913
 30
0.0
 11
153.320142
 21
105.693072
 31
0.0
  0
LINE
  5
2FF
  8
0
 62
     0
 10
155.486064
 20
103.208952
 30
0.0
 11
154.65952
 21
104.035496
 31
0.0
  0
LINE
  5
300
  8
0
 62
     0
 10
153.960559
 20
104.734457
 30
0.0
 11
153.001944
 21
105.693072
 31
0.0
  0
LINE
  5
301
  8
0
 62
     0
 10
155.167866
 20
103.208952
 30
0.0
 11
154.601778
 21
103.77504
 31
0.0
  0
LINE
  5
302
  8
0
 62
     0
 10
153.902817
 20
104.474
 30
0.0
 11
152.683746
 21
105.693072
 31
0.0
  0
LINE
  5
303
  8
0
 62
     0
 10
154.849668
 20
103.208952
 30
0.0
 11
154.544036
 21
103.514584
 31
0.0
  0
LINE
  5
304
  8
0
 62
     0
 10
153.845076
 20
104.213544
 30
0.0
 11
152.447155
 21
105.611465
 31
0.0
  0
LINE
  5
305
  8
0
 62
     0
 10
154.53147
 20
103.208952
 30
0.0
 11
154.486294
 21
103.254128
 31
0.0
  0
LINE
  5
306
  8
0
 62
     0
 10
153.787334
 20
103.953088
 30
0.0
 11
152.389413
 21
105.351009
 31
0.0
  0
LINE
  5
307
  8
0
 62
     0
 10
153.729592
 20
103.692632
 30
0.0
 11
152.331671
 21
105.090552
 31
0.0
  0
LINE
  5
308
  8
0
 62
     0
 10
153.67185
 20
103.432175
 30
0.0
 11
152.27393
 21
104.830096
 31
0.0
  0
LINE
  5
309
  8
0
 62
     0
 10
153.576875
 20
103.208952
 30
0.0
 11
152.073304
 21
104.712524
 31
0.0
  0
LINE
  5
30A
  8
0
 62
     0
 10
153.258677
 20
103.208952
 30
0.0
 11
150.999582
 21
105.468047
 31
0.0
  0
LINE
  5
30B
  8
0
 62
     0
 10
152.940479
 20
103.208952
 30
0.0
 11
150.45636
 21
105.693072
 31
0.0
  0
LINE
  5
30C
  8
0
 62
     0
 10
152.622281
 20
103.208952
 30
0.0
 11
150.138161
 21
105.693072
 31
0.0
  0
LINE
  5
30D
  8
0
 62
     0
 10
152.304083
 20
103.208952
 30
0.0
 11
149.819963
 21
105.693072
 31
0.0
  0
LINE
  5
30E
  8
0
 62
     0
 10
151.985885
 20
103.208952
 30
0.0
 11
149.501765
 21
105.693072
 31
0.0
  0
LINE
  5
30F
  8
0
 62
     0
 10
151.542665
 20
103.333975
 30
0.0
 11
149.183567
 21
105.693072
 31
0.0
  0
LINE
  5
310
  8
0
 62
     0
 10
150.096365
 20
104.462076
 30
0.0
 11
148.865369
 21
105.693072
 31
0.0
  0
LINE
  5
311
  8
0
 62
     0
 10
150.038624
 20
104.20162
 30
0.0
 11
148.640703
 21
105.59954
 31
0.0
  0
LINE
  5
312
  8
0
 62
     0
 10
149.980882
 20
103.941163
 30
0.0
 11
148.582961
 21
105.339084
 31
0.0
  0
LINE
  5
313
  8
0
 62
     0
 10
149.92314
 20
103.680707
 30
0.0
 11
148.525219
 21
105.078628
 31
0.0
  0
LINE
  5
314
  8
0
 62
     0
 10
149.865398
 20
103.420251
 30
0.0
 11
148.467478
 21
104.818171
 31
0.0
  0
LINE
  5
315
  8
0
 62
     0
 10
149.758499
 20
103.208952
 30
0.0
 11
148.409736
 21
104.557715
 31
0.0
  0
LINE
  5
316
  8
0
 62
     0
 10
149.440301
 20
103.208952
 30
0.0
 11
148.351994
 21
104.297259
 31
0.0
  0
LINE
  5
317
  8
0
 62
     0
 10
149.122103
 20
103.208952
 30
0.0
 11
148.294252
 21
104.036803
 31
0.0
  0
LINE
  5
318
  8
0
 62
     0
 10
148.803905
 20
103.208952
 30
0.0
 11
148.236511
 21
103.776346
 31
0.0
  0
LINE
  5
319
  8
0
 62
     0
 10
148.485707
 20
103.208952
 30
0.0
 11
148.178769
 21
103.51589
 31
0.0
  0
LINE
  5
31A
  8
0
 62
     0
 10
148.167508
 20
103.208952
 30
0.0
 11
148.121027
 21
103.255434
 31
0.0
  0
LINE
  5
31B
  8
0
 62
     0
 10
175.214343
 20
103.208952
 30
0.0
 11
174.622995
 21
103.8003
 31
0.0
  0
LINE
  5
31C
  8
0
 62
     0
 10
173.235386
 20
105.187909
 30
0.0
 11
172.730223
 21
105.693072
 31
0.0
  0
LINE
  5
31D
  8
0
 62
     0
 10
174.288055
 20
104.13524
 30
0.0
 11
173.998077
 21
104.425218
 31
0.0
  0
LINE
  5
31E
  8
0
 62
     0
 10
175.532541
 20
103.208952
 30
0.0
 11
174.316275
 21
104.425218
 31
0.0
  0
LINE
  5
31F
  8
0
 62
     0
 10
173.4884
 20
105.253094
 30
0.0
 11
173.048421
 21
105.693072
 31
0.0
  0
LINE
  5
320
  8
0
 62
     0
 10
175.850739
 20
103.208952
 30
0.0
 11
174.586541
 21
104.47315
 31
0.0
  0
LINE
  5
321
  8
0
 62
     0
 10
173.806598
 20
105.253094
 30
0.0
 11
173.366619
 21
105.693072
 31
0.0
  0
LINE
  5
322
  8
0
 62
     0
 10
176.168937
 20
103.208952
 30
0.0
 11
174.789565
 21
104.588325
 31
0.0
  0
LINE
  5
323
  8
0
 62
     0
 10
174.124796
 20
105.253094
 30
0.0
 11
173.684817
 21
105.693072
 31
0.0
  0
LINE
  5
324
  8
0
 62
     0
 10
176.311422
 20
103.384665
 30
0.0
 11
174.927684
 21
104.768404
 31
0.0
  0
LINE
  5
325
  8
0
 62
     0
 10
174.442994
 20
105.253094
 30
0.0
 11
174.003015
 21
105.693072
 31
0.0
  0
LINE
  5
326
  8
0
 62
     0
 10
176.323639
 20
103.690647
 30
0.0
 11
174.914671
 21
105.099614
 31
0.0
  0
LINE
  5
327
  8
0
 62
     0
 10
174.791615
 20
105.22267
 30
0.0
 11
174.321213
 21
105.693072
 31
0.0
  0
LINE
  5
328
  8
0
 62
     0
 10
176.344435
 20
103.988048
 30
0.0
 11
174.639411
 21
105.693072
 31
0.0
  0
LINE
  5
329
  8
0
 62
     0
 10
177.441729
 20
103.208952
 30
0.0
 11
177.197922
 21
103.452759
 31
0.0
  0
LINE
  5
32A
  8
0
 62
     0
 10
176.286615
 20
104.364066
 30
0.0
 11
174.95761
 21
105.693072
 31
0.0
  0
LINE
  5
32B
  8
0
 62
     0
 10
177.759927
 20
103.208952
 30
0.0
 11
177.255664
 21
103.713216
 31
0.0
  0
LINE
  5
32C
  8
0
 62
     0
 10
176.4817
 20
104.487179
 30
0.0
 11
175.275808
 21
105.693072
 31
0.0
  0
LINE
  5
32D
  8
0
 62
     0
 10
178.078125
 20
103.208952
 30
0.0
 11
177.313406
 21
103.973672
 31
0.0
  0
LINE
  5
32E
  8
0
 62
     0
 10
176.650286
 20
104.636791
 30
0.0
 11
175.594006
 21
105.693072
 31
0.0
  0
LINE
  5
32F
  8
0
 62
     0
 10
178.396323
 20
103.208952
 30
0.0
 11
177.371148
 21
104.234128
 31
0.0
  0
LINE
  5
330
  8
0
 62
     0
 10
176.785346
 20
104.81993
 30
0.0
 11
175.912204
 21
105.693072
 31
0.0
  0
LINE
  5
331
  8
0
 62
     0
 10
178.714521
 20
103.208952
 30
0.0
 11
177.428889
 21
104.494584
 31
0.0
  0
LINE
  5
332
  8
0
 62
     0
 10
176.870902
 20
105.052571
 30
0.0
 11
176.255428
 21
105.668046
 31
0.0
  0
LINE
  5
333
  8
0
 62
     0
 10
178.884552
 20
103.35712
 30
0.0
 11
177.486631
 21
104.755041
 31
0.0
  0
LINE
  5
334
  8
0
 62
     0
 10
178.942294
 20
103.617576
 30
0.0
 11
177.544373
 21
105.015497
 31
0.0
  0
LINE
  5
335
  8
0
 62
     0
 10
179.000035
 20
103.878033
 30
0.0
 11
177.602115
 21
105.275953
 31
0.0
  0
LINE
  5
336
  8
0
 62
     0
 10
179.987314
 20
103.208952
 30
0.0
 11
179.883821
 21
103.312445
 31
0.0
  0
LINE
  5
337
  8
0
 62
     0
 10
179.057777
 20
104.138489
 30
0.0
 11
177.659856
 21
105.53641
 31
0.0
  0
LINE
  5
338
  8
0
 62
     0
 10
180.305512
 20
103.208952
 30
0.0
 11
179.941563
 21
103.572901
 31
0.0
  0
LINE
  5
339
  8
0
 62
     0
 10
179.115519
 20
104.398945
 30
0.0
 11
177.821392
 21
105.693072
 31
0.0
  0
LINE
  5
33A
  8
0
 62
     0
 10
180.62371
 20
103.208952
 30
0.0
 11
179.999305
 21
103.833357
 31
0.0
  0
LINE
  5
33B
  8
0
 62
     0
 10
179.173261
 20
104.659401
 30
0.0
 11
178.13959
 21
105.693072
 31
0.0
  0
LINE
  5
33C
  8
0
 62
     0
 10
180.941908
 20
103.208952
 30
0.0
 11
180.057046
 21
104.093814
 31
0.0
  0
LINE
  5
33D
  8
0
 62
     0
 10
179.231002
 20
104.919858
 30
0.0
 11
178.457788
 21
105.693072
 31
0.0
  0
LINE
  5
33E
  8
0
 62
     0
 10
181.260106
 20
103.208952
 30
0.0
 11
180.114788
 21
104.35427
 31
0.0
  0
LINE
  5
33F
  8
0
 62
     0
 10
179.288744
 20
105.180314
 30
0.0
 11
178.775986
 21
105.693072
 31
0.0
  0
LINE
  5
340
  8
0
 62
     0
 10
181.506909
 20
103.280347
 30
0.0
 11
180.17253
 21
104.614726
 31
0.0
  0
LINE
  5
341
  8
0
 62
     0
 10
179.346486
 20
105.44077
 30
0.0
 11
179.094184
 21
105.693072
 31
0.0
  0
LINE
  5
342
  8
0
 62
     0
 10
181.564651
 20
103.540804
 30
0.0
 11
180.230272
 21
104.875182
 31
0.0
  0
LINE
  5
343
  8
0
 62
     0
 10
181.622392
 20
103.80126
 30
0.0
 11
180.288014
 21
105.135639
 31
0.0
  0
LINE
  5
344
  8
0
 62
     0
 10
181.827275
 20
103.914576
 30
0.0
 11
180.345755
 21
105.396095
 31
0.0
  0
LINE
  5
345
  8
0
 62
     0
 10
182.050395
 20
104.009654
 30
0.0
 11
180.403497
 21
105.656551
 31
0.0
  0
LINE
  5
346
  8
0
 62
     0
 10
182.273514
 20
104.104732
 30
0.0
 11
180.685174
 21
105.693072
 31
0.0
  0
LINE
  5
347
  8
0
 62
     0
 10
183.487492
 20
103.208952
 30
0.0
 11
181.003372
 21
105.693072
 31
0.0
  0
LINE
  5
348
  8
0
 62
     0
 10
183.80569
 20
103.208952
 30
0.0
 11
182.070276
 21
104.944367
 31
0.0
  0
LINE
  5
349
  8
0
 62
     0
 10
181.911101
 20
105.103541
 30
0.0
 11
181.321571
 21
105.693072
 31
0.0
  0
LINE
  5
34A
  8
0
 62
     0
 10
184.123888
 20
103.208952
 30
0.0
 11
182.293395
 21
105.039445
 31
0.0
  0
LINE
  5
34B
  8
0
 62
     0
 10
181.968843
 20
105.363998
 30
0.0
 11
181.639769
 21
105.693072
 31
0.0
  0
LINE
  5
34C
  8
0
 62
     0
 10
184.442086
 20
103.208952
 30
0.0
 11
182.516515
 21
105.134523
 31
0.0
  0
LINE
  5
34D
  8
0
 62
     0
 10
182.026585
 20
105.624454
 30
0.0
 11
181.957967
 21
105.693072
 31
0.0
  0
LINE
  5
34E
  8
0
 62
     0
 10
184.760284
 20
103.208952
 30
0.0
 11
182.739635
 21
105.229602
 31
0.0
  0
LINE
  5
34F
  8
0
 62
     0
 10
185.078482
 20
103.208952
 30
0.0
 11
182.962755
 21
105.32468
 31
0.0
  0
LINE
  5
350
  8
0
 62
     0
 10
185.396681
 20
103.208952
 30
0.0
 11
183.185874
 21
105.419758
 31
0.0
  0
LINE
  5
351
  8
0
 62
     0
 10
184.058472
 20
104.865359
 30
0.0
 11
183.408994
 21
105.514837
 31
0.0
  0
LINE
  5
352
  8
0
 62
     0
 10
184.281592
 20
104.960437
 30
0.0
 11
183.632114
 21
105.609915
 31
0.0
  0
LINE
  5
353
  8
0
 62
     0
 10
184.504712
 20
105.055515
 30
0.0
 11
183.867155
 21
105.693072
 31
0.0
  0
LINE
  5
354
  8
0
 62
     0
 10
184.727831
 20
105.150593
 30
0.0
 11
184.185353
 21
105.693072
 31
0.0
  0
LINE
  5
355
  8
0
 62
     0
 10
184.950951
 20
105.245672
 30
0.0
 11
184.503551
 21
105.693072
 31
0.0
  0
LINE
  5
356
  8
0
 62
     0
 10
185.174071
 20
105.34075
 30
0.0
 11
184.821749
 21
105.693072
 31
0.0
  0
LINE
  5
357
  8
0
 62
     0
 10
185.397191
 20
105.435828
 30
0.0
 11
185.139947
 21
105.693072
 31
0.0
  0
LINE
  5
358
  8
0
 62
     0
 10
185.62031
 20
105.530907
 30
0.0
 11
185.458145
 21
105.693072
 31
0.0
  0
LINE
  5
359
  8
0
 62
     0
 10
185.84343
 20
105.625985
 30
0.0
 11
185.776343
 21
105.693072
 31
0.0
  0
LINE
  5
35A
  8
0
 62
     0
 10
188.578661
 20
103.208952
 30
0.0
 11
188.513227
 21
103.274387
 31
0.0
  0
LINE
  5
35B
  8
0
 62
     0
 10
188.896859
 20
103.208952
 30
0.0
 11
188.649597
 21
103.456214
 31
0.0
  0
LINE
  5
35C
  8
0
 62
     0
 10
189.215057
 20
103.208952
 30
0.0
 11
188.785968
 21
103.638042
 31
0.0
  0
LINE
  5
35D
  8
0
 62
     0
 10
189.533255
 20
103.208952
 30
0.0
 11
188.922338
 21
103.819869
 31
0.0
  0
LINE
  5
35E
  8
0
 62
     0
 10
189.851453
 20
103.208952
 30
0.0
 11
189.058709
 21
104.001696
 31
0.0
  0
LINE
  5
35F
  8
0
 62
     0
 10
190.152872
 20
103.225732
 30
0.0
 11
189.19508
 21
104.183524
 31
0.0
  0
LINE
  5
360
  8
0
 62
     0
 10
190.289242
 20
103.407559
 30
0.0
 11
189.33145
 21
104.365351
 31
0.0
  0
LINE
  5
361
  8
0
 62
     0
 10
190.425613
 20
103.589387
 30
0.0
 11
189.467821
 21
104.547179
 31
0.0
  0
LINE
  5
362
  8
0
 62
     0
 10
190.644214
 20
103.688984
 30
0.0
 11
189.604191
 21
104.729006
 31
0.0
  0
LINE
  5
363
  8
0
 62
     0
 10
190.962412
 20
103.688984
 30
0.0
 11
189.740562
 21
104.910834
 31
0.0
  0
LINE
  5
364
  8
0
 62
     0
 10
191.28061
 20
103.688984
 30
0.0
 11
190.907422
 21
104.062171
 31
0.0
  0
LINE
  5
365
  8
0
 62
     0
 10
190.834725
 20
104.134869
 30
0.0
 11
189.876933
 21
105.092661
 31
0.0
  0
LINE
  5
366
  8
0
 62
     0
 10
191.598808
 20
103.688984
 30
0.0
 11
191.22562
 21
104.062171
 31
0.0
  0
LINE
  5
367
  8
0
 62
     0
 10
190.971095
 20
104.316696
 30
0.0
 11
190.013303
 21
105.274489
 31
0.0
  0
LINE
  5
368
  8
0
 62
     0
 10
192.397038
 20
103.208952
 30
0.0
 11
192.329041
 21
103.276949
 31
0.0
  0
LINE
  5
369
  8
0
 62
     0
 10
191.107466
 20
104.498524
 30
0.0
 11
190.149674
 21
105.456316
 31
0.0
  0
LINE
  5
36A
  8
0
 62
     0
 10
191.917006
 20
103.688984
 30
0.0
 11
191.543818
 21
104.062171
 31
0.0
  0
LINE
  5
36B
  8
0
 62
     0
 10
192.715236
 20
103.208952
 30
0.0
 11
191.862016
 21
104.062171
 31
0.0
  0
LINE
  5
36C
  8
0
 62
     0
 10
191.243837
 20
104.680351
 30
0.0
 11
190.286044
 21
105.638144
 31
0.0
  0
LINE
  5
36D
  8
0
 62
     0
 10
193.033434
 20
103.208952
 30
0.0
 11
192.116909
 21
104.125477
 31
0.0
  0
LINE
  5
36E
  8
0
 62
     0
 10
191.380207
 20
104.862179
 30
0.0
 11
190.548585
 21
105.693801
 31
0.0
  0
LINE
  5
36F
  8
0
 62
     0
 10
193.351632
 20
103.208952
 30
0.0
 11
192.010843
 21
104.549741
 31
0.0
  0
LINE
  5
370
  8
0
 62
     0
 10
191.516578
 20
105.044006
 30
0.0
 11
190.866783
 21
105.693801
 31
0.0
  0
LINE
  5
371
  8
0
 62
     0
 10
193.66983
 20
103.208952
 30
0.0
 11
191.904777
 21
104.974005
 31
0.0
  0
LINE
  5
372
  8
0
 62
     0
 10
191.652948
 20
105.225834
 30
0.0
 11
191.184981
 21
105.693801
 31
0.0
  0
LINE
  5
373
  8
0
 62
     0
 10
193.875595
 20
103.321385
 30
0.0
 11
191.798711
 21
105.398269
 31
0.0
  0
LINE
  5
374
  8
0
 62
     0
 10
191.789319
 20
105.407661
 30
0.0
 11
191.503179
 21
105.693801
 31
0.0
  0
LINE
  5
375
  8
0
 62
     0
 10
193.769529
 20
103.745649
 30
0.0
 11
191.821377
 21
105.693801
 31
0.0
  0
LINE
  5
376
  8
0
 62
     0
 10
193.663463
 20
104.169913
 30
0.0
 11
192.139576
 21
105.693801
 31
0.0
  0
LINE
  5
377
  8
0
 62
     0
 10
194.732492
 20
103.419082
 30
0.0
 11
194.673972
 21
103.477602
 31
0.0
  0
LINE
  5
378
  8
0
 62
     0
 10
193.557397
 20
104.594177
 30
0.0
 11
192.457774
 21
105.693801
 31
0.0
  0
LINE
  5
379
  8
0
 62
     0
 10
195.149298
 20
103.320474
 30
0.0
 11
194.635225
 21
103.834548
 31
0.0
  0
LINE
  5
37A
  8
0
 62
     0
 10
193.451331
 20
105.018441
 30
0.0
 11
192.775972
 21
105.693801
 31
0.0
  0
LINE
  5
37B
  8
0
 62
     0
 10
195.509282
 20
103.278689
 30
0.0
 11
194.682922
 21
104.105049
 31
0.0
  0
LINE
  5
37C
  8
0
 62
     0
 10
193.345265
 20
105.442705
 30
0.0
 11
193.09417
 21
105.693801
 31
0.0
  0
LINE
  5
37D
  8
0
 62
     0
 10
195.858857
 20
103.247312
 30
0.0
 11
194.730618
 21
104.37555
 31
0.0
  0
LINE
  5
37E
  8
0
 62
     0
 10
196.19894
 20
103.225426
 30
0.0
 11
194.778315
 21
104.646052
 31
0.0
  0
LINE
  5
37F
  8
0
 62
     0
 10
196.530306
 20
103.212258
 30
0.0
 11
194.826012
 21
104.916553
 31
0.0
  0
LINE
  5
380
  8
0
 62
     0
 10
196.853616
 20
103.207147
 30
0.0
 11
194.873708
 21
105.187054
 31
0.0
  0
LINE
  5
381
  8
0
 62
     0
 10
197.169437
 20
103.209523
 30
0.0
 11
196.717543
 21
103.661418
 31
0.0
  0
LINE
  5
382
  8
0
 62
     0
 10
196.241642
 20
104.137319
 30
0.0
 11
194.970499
 21
105.408462
 31
0.0
  0
LINE
  5
383
  8
0
 62
     0
 10
197.478265
 20
103.218894
 30
0.0
 11
197.047649
 21
103.64951
 31
0.0
  0
LINE
  5
384
  8
0
 62
     0
 10
196.289339
 20
104.40782
 30
0.0
 11
195.193391
 21
105.503767
 31
0.0
  0
LINE
  5
385
  8
0
 62
     0
 10
197.78053
 20
103.234826
 30
0.0
 11
197.349867
 21
103.66549
 31
0.0
  0
LINE
  5
386
  8
0
 62
     0
 10
196.337035
 20
104.678321
 30
0.0
 11
195.468172
 21
105.547185
 31
0.0
  0
LINE
  5
387
  8
0
 62
     0
 10
198.124603
 20
103.208952
 30
0.0
 11
197.630009
 21
103.703546
 31
0.0
  0
LINE
  5
388
  8
0
 62
     0
 10
196.384732
 20
104.948823
 30
0.0
 11
195.748005
 21
105.58555
 31
0.0
  0
LINE
  5
389
  8
0
 62
     0
 10
198.442801
 20
103.208952
 30
0.0
 11
197.855526
 21
103.796227
 31
0.0
  0
LINE
  5
38A
  8
0
 62
     0
 10
196.502999
 20
105.148753
 30
0.0
 11
196.033135
 21
105.618617
 31
0.0
  0
LINE
  5
38B
  8
0
 62
     0
 10
197.573104
 20
104.078649
 30
0.0
 11
197.380196
 21
104.271557
 31
0.0
  0
LINE
  5
38C
  8
0
 62
     0
 10
198.760999
 20
103.208952
 30
0.0
 11
197.955988
 21
104.013963
 31
0.0
  0
LINE
  5
38D
  8
0
 62
     0
 10
196.745041
 20
105.22491
 30
0.0
 11
196.323833
 21
105.646118
 31
0.0
  0
LINE
  5
38E
  8
0
 62
     0
 10
197.891302
 20
104.078649
 30
0.0
 11
197.668574
 21
104.301376
 31
0.0
  0
LINE
  5
38F
  8
0
 62
     0
 10
199.079197
 20
103.208952
 30
0.0
 11
197.986772
 21
104.301376
 31
0.0
  0
LINE
  5
390
  8
0
 62
     0
 10
197.034275
 20
105.253874
 30
0.0
 11
196.620401
 21
105.667748
 31
0.0
  0
LINE
  5
391
  8
0
 62
     0
 10
199.371618
 20
103.234729
 30
0.0
 11
198.304971
 21
104.301376
 31
0.0
  0
LINE
  5
392
  8
0
 62
     0
 10
197.347781
 20
105.258566
 30
0.0
 11
196.923178
 21
105.683169
 31
0.0
  0
LINE
  5
393
  8
0
 62
     0
 10
199.419315
 20
103.50523
 30
0.0
 11
198.623169
 21
104.301376
 31
0.0
  0
LINE
  5
394
  8
0
 62
     0
 10
197.692832
 20
105.231713
 30
0.0
 11
197.232551
 21
105.691994
 31
0.0
  0
LINE
  5
395
  8
0
 62
     0
 10
199.467011
 20
103.775732
 30
0.0
 11
198.941367
 21
104.301376
 31
0.0
  0
LINE
  5
396
  8
0
 62
     0
 10
198.27875
 20
104.963993
 30
0.0
 11
197.548954
 21
105.693789
 31
0.0
  0
LINE
  5
397
  8
0
 62
     0
 10
199.514708
 20
104.046233
 30
0.0
 11
199.259565
 21
104.301376
 31
0.0
  0
LINE
  5
398
  8
0
 62
     0
 10
198.596948
 20
104.963993
 30
0.0
 11
197.872889
 21
105.688052
 31
0.0
  0
LINE
  5
399
  8
0
 62
     0
 10
198.915146
 20
104.963993
 30
0.0
 11
198.204929
 21
105.67421
 31
0.0
  0
LINE
  5
39A
  8
0
 62
     0
 10
199.233344
 20
104.963993
 30
0.0
 11
198.545745
 21
105.651593
 31
0.0
  0
LINE
  5
39B
  8
0
 62
     0
 10
199.551542
 20
104.963993
 30
0.0
 11
198.896119
 21
105.619416
 31
0.0
  0
LINE
  5
39C
  8
0
 62
     0
 10
199.705495
 20
105.128239
 30
0.0
 11
199.256984
 21
105.57675
 31
0.0
  0
ENDBLK
  5
39D
  8
0
  0
BLOCK
  8
0
  2
RAUH
 70
     0
 10
0.0
 20
0.0
 30
0.0
  3
RAUH
  1

  0
ENDBLK
  5
39F
  8
0
  0
BLOCK
  8
0
  2
ACAD
 70
     0
 10
0.0
 20
0.0
 30
0.0
  3
ACAD
  1

  0
ENDBLK
  5
3A1
  8
0
  0
BLOCK
  8
0
  2
*X5
 70
     1
 10
0.0
 20
0.0
 30
0.0
  3
*X5
  1

  0
LINE
  5
3A3
  8
0
 62
     0
 10
496.868662
 20
229.228745
 30
0.0
 11
500.230506
 21
232.590589
 31
0.0
  0
LINE
  5
3A4
  8
0
 62
     0
 10
505.117677
 20
237.47776
 30
0.0
 11
506.898961
 21
239.259044
 31
0.0
  0
LINE
  5
3A5
  8
0
 62
     0
 10
500.60544
 20
232.965523
 30
0.0
 11
503.429781
 21
235.789864
 31
0.0
  0
LINE
  5
3A6
  8
0
 62
     0
 10
496.691885
 20
229.228745
 30
0.0
 11
500.29521
 21
232.83207
 31
0.0
  0
LINE
  5
3A7
  8
0
 62
     0
 10
505.070505
 20
237.607365
 30
0.0
 11
506.722184
 21
239.259044
 31
0.0
  0
LINE
  5
3A8
  8
0
 62
     0
 10
500.428663
 20
232.965523
 30
0.0
 11
503.382609
 21
235.919469
 31
0.0
  0
LINE
  5
3A9
  8
0
 62
     0
 10
496.515109
 20
229.228745
 30
0.0
 11
503.335436
 21
236.049073
 31
0.0
  0
LINE
  5
3AA
  8
0
 62
     0
 10
505.023332
 20
237.736969
 30
0.0
 11
506.545407
 21
239.259044
 31
0.0
  0
LINE
  5
3AB
  8
0
 62
     0
 10
496.338332
 20
229.228745
 30
0.0
 11
503.288264
 21
236.178678
 31
0.0
  0
LINE
  5
3AC
  8
0
 62
     0
 10
504.97616
 20
237.866574
 30
0.0
 11
506.368631
 21
239.259044
 31
0.0
  0
LINE
  5
3AD
  8
0
 62
     0
 10
496.2008
 20
229.26799
 30
0.0
 11
503.241092
 21
236.308282
 31
0.0
  0
LINE
  5
3AE
  8
0
 62
     0
 10
504.928988
 20
237.996178
 30
0.0
 11
506.191854
 21
239.259044
 31
0.0
  0
LINE
  5
3AF
  8
0
 62
     0
 10
496.265505
 20
229.509472
 30
0.0
 11
503.19392
 21
236.437887
 31
0.0
  0
LINE
  5
3B0
  8
0
 62
     0
 10
504.881816
 20
238.125783
 30
0.0
 11
506.015077
 21
239.259044
 31
0.0
  0
LINE
  5
3B1
  8
0
 62
     0
 10
496.33021
 20
229.750953
 30
0.0
 11
503.146748
 21
236.567491
 31
0.0
  0
LINE
  5
3B2
  8
0
 62
     0
 10
504.834644
 20
238.255387
 30
0.0
 11
505.8383
 21
239.259044
 31
0.0
  0
LINE
  5
3B3
  8
0
 62
     0
 10
496.394914
 20
229.992435
 30
0.0
 11
503.099575
 21
236.697096
 31
0.0
  0
LINE
  5
3B4
  8
0
 62
     0
 10
504.787471
 20
238.384992
 30
0.0
 11
505.661524
 21
239.259044
 31
0.0
  0
LINE
  5
3B5
  8
0
 62
     0
 10
496.459619
 20
230.233916
 30
0.0
 11
503.052403
 21
236.8267
 31
0.0
  0
LINE
  5
3B6
  8
0
 62
     0
 10
504.740299
 20
238.514596
 30
0.0
 11
505.484747
 21
239.259044
 31
0.0
  0
LINE
  5
3B7
  8
0
 62
     0
 10
496.524324
 20
230.475398
 30
0.0
 11
503.005231
 21
236.956305
 31
0.0
  0
LINE
  5
3B8
  8
0
 62
     0
 10
504.693127
 20
238.644201
 30
0.0
 11
505.30797
 21
239.259044
 31
0.0
  0
LINE
  5
3B9
  8
0
 62
     0
 10
496.589029
 20
230.716879
 30
0.0
 11
502.958059
 21
237.085909
 31
0.0
  0
LINE
  5
3BA
  8
0
 62
     0
 10
504.645955
 20
238.773805
 30
0.0
 11
505.131194
 21
239.259044
 31
0.0
  0
LINE
  5
3BB
  8
0
 62
     0
 10
496.653733
 20
230.95836
 30
0.0
 11
502.910887
 21
237.215514
 31
0.0
  0
LINE
  5
3BC
  8
0
 62
     0
 10
504.598783
 20
238.90341
 30
0.0
 11
504.954417
 21
239.259044
 31
0.0
  0
LINE
  5
3BD
  8
0
 62
     0
 10
496.718438
 20
231.199842
 30
0.0
 11
502.863715
 21
237.345118
 31
0.0
  0
LINE
  5
3BE
  8
0
 62
     0
 10
504.55161
 20
239.033014
 30
0.0
 11
504.77764
 21
239.259044
 31
0.0
  0
LINE
  5
3BF
  8
0
 62
     0
 10
496.783143
 20
231.441323
 30
0.0
 11
502.816542
 21
237.474723
 31
0.0
  0
LINE
  5
3C0
  8
0
 62
     0
 10
504.504438
 20
239.162619
 30
0.0
 11
504.600864
 21
239.259044
 31
0.0
  0
LINE
  5
3C1
  8
0
 62
     0
 10
496.847848
 20
231.682805
 30
0.0
 11
502.76937
 21
237.604327
 31
0.0
  0
LINE
  5
3C2
  8
0
 62
     0
 10
496.912552
 20
231.924286
 30
0.0
 11
500.31386
 21
235.325593
 31
0.0
  0
LINE
  5
3C3
  8
0
 62
     0
 10
500.420522
 20
235.432255
 30
0.0
 11
502.722198
 21
237.733932
 31
0.0
  0
LINE
  5
3C4
  8
0
 62
     0
 10
496.977257
 20
232.165768
 30
0.0
 11
500.137083
 21
235.325593
 31
0.0
  0
LINE
  5
3C5
  8
0
 62
     0
 10
500.37335
 20
235.56186
 30
0.0
 11
502.675026
 21
237.863536
 31
0.0
  0
LINE
  5
3C6
  8
0
 62
     0
 10
497.041962
 20
232.407249
 30
0.0
 11
499.960306
 21
235.325593
 31
0.0
  0
LINE
  5
3C7
  8
0
 62
     0
 10
500.326177
 20
235.691465
 30
0.0
 11
502.627854
 21
237.993141
 31
0.0
  0
LINE
  5
3C8
  8
0
 62
     0
 10
497.106667
 20
232.648731
 30
0.0
 11
499.78353
 21
235.325593
 31
0.0
  0
LINE
  5
3C9
  8
0
 62
     0
 10
500.279005
 20
235.821069
 30
0.0
 11
502.580681
 21
238.122745
 31
0.0
  0
LINE
  5
3CA
  8
0
 62
     0
 10
497.171372
 20
232.890212
 30
0.0
 11
499.606753
 21
235.325593
 31
0.0
  0
LINE
  5
3CB
  8
0
 62
     0
 10
500.231833
 20
235.950674
 30
0.0
 11
502.533509
 21
238.25235
 31
0.0
  0
LINE
  5
3CC
  8
0
 62
     0
 10
497.069906
 20
232.965523
 30
0.0
 11
499.429976
 21
235.325593
 31
0.0
  0
LINE
  5
3CD
  8
0
 62
     0
 10
500.184661
 20
236.080278
 30
0.0
 11
502.486337
 21
238.381954
 31
0.0
  0
LINE
  5
3CE
  8
0
 62
     0
 10
496.893129
 20
232.965523
 30
0.0
 11
499.2532
 21
235.325593
 31
0.0
  0
LINE
  5
3CF
  8
0
 62
     0
 10
500.137489
 20
236.209883
 30
0.0
 11
502.439165
 21
238.511559
 31
0.0
  0
LINE
  5
3D0
  8
0
 62
     0
 10
496.716353
 20
232.965523
 30
0.0
 11
499.076423
 21
235.325593
 31
0.0
  0
LINE
  5
3D1
  8
0
 62
     0
 10
500.090316
 20
236.339487
 30
0.0
 11
502.391993
 21
238.641163
 31
0.0
  0
LINE
  5
3D2
  8
0
 62
     0
 10
496.539576
 20
232.965523
 30
0.0
 11
498.899646
 21
235.325593
 31
0.0
  0
LINE
  5
3D3
  8
0
 62
     0
 10
500.043144
 20
236.469092
 30
0.0
 11
502.344821
 21
238.770768
 31
0.0
  0
LINE
  5
3D4
  8
0
 62
     0
 10
496.362799
 20
232.965523
 30
0.0
 11
498.722869
 21
235.325593
 31
0.0
  0
LINE
  5
3D5
  8
0
 62
     0
 10
499.995972
 20
236.598696
 30
0.0
 11
502.297648
 21
238.900372
 31
0.0
  0
LINE
  5
3D6
  8
0
 62
     0
 10
496.186023
 20
232.965523
 30
0.0
 11
498.546093
 21
235.325593
 31
0.0
  0
LINE
  5
3D7
  8
0
 62
     0
 10
499.9488
 20
236.728301
 30
0.0
 11
502.250476
 21
239.029977
 31
0.0
  0
LINE
  5
3D8
  8
0
 62
     0
 10
496.009246
 20
232.965523
 30
0.0
 11
498.369316
 21
235.325593
 31
0.0
  0
LINE
  5
3D9
  8
0
 62
     0
 10
499.901628
 20
236.857905
 30
0.0
 11
502.203304
 21
239.159581
 31
0.0
  0
LINE
  5
3DA
  8
0
 62
     0
 10
495.832469
 20
232.965523
 30
0.0
 11
498.192539
 21
235.325593
 31
0.0
  0
LINE
  5
3DB
  8
0
 62
     0
 10
499.76592
 20
236.898974
 30
0.0
 11
502.12599
 21
239.259044
 31
0.0
  0
LINE
  5
3DC
  8
0
 62
     0
 10
495.657494
 20
232.967325
 30
0.0
 11
498.015763
 21
235.325593
 31
0.0
  0
LINE
  5
3DD
  8
0
 62
     0
 10
499.589143
 20
236.898974
 30
0.0
 11
501.949213
 21
239.259044
 31
0.0
  0
LINE
  5
3DE
  8
0
 62
     0
 10
495.499094
 20
232.985702
 30
0.0
 11
497.838986
 21
235.325593
 31
0.0
  0
LINE
  5
3DF
  8
0
 62
     0
 10
499.412366
 20
236.898974
 30
0.0
 11
501.772436
 21
239.259044
 31
0.0
  0
LINE
  5
3E0
  8
0
 62
     0
 10
495.356502
 20
233.019886
 30
0.0
 11
497.662209
 21
235.325593
 31
0.0
  0
LINE
  5
3E1
  8
0
 62
     0
 10
499.235589
 20
236.898974
 30
0.0
 11
501.59566
 21
239.259044
 31
0.0
  0
LINE
  5
3E2
  8
0
 62
     0
 10
495.226644
 20
233.066804
 30
0.0
 11
497.485433
 21
235.325593
 31
0.0
  0
LINE
  5
3E3
  8
0
 62
     0
 10
499.058813
 20
236.898974
 30
0.0
 11
501.418883
 21
239.259044
 31
0.0
  0
LINE
  5
3E4
  8
0
 62
     0
 10
495.107693
 20
233.12463
 30
0.0
 11
497.308656
 21
235.325593
 31
0.0
  0
LINE
  5
3E5
  8
0
 62
     0
 10
498.882036
 20
236.898974
 30
0.0
 11
501.242106
 21
239.259044
 31
0.0
  0
LINE
  5
3E6
  8
0
 62
     0
 10
494.998524
 20
233.192238
 30
0.0
 11
497.131879
 21
235.325593
 31
0.0
  0
LINE
  5
3E7
  8
0
 62
     0
 10
498.705259
 20
236.898974
 30
0.0
 11
501.06533
 21
239.259044
 31
0.0
  0
LINE
  5
3E8
  8
0
 62
     0
 10
494.898461
 20
233.268952
 30
0.0
 11
497.069129
 21
235.43962
 31
0.0
  0
LINE
  5
3E9
  8
0
 62
     0
 10
498.528483
 20
236.898974
 30
0.0
 11
500.888553
 21
239.259044
 31
0.0
  0
LINE
  5
3EA
  8
0
 62
     0
 10
494.807149
 20
233.354417
 30
0.0
 11
497.021957
 21
235.569224
 31
0.0
  0
LINE
  5
3EB
  8
0
 62
     0
 10
498.351706
 20
236.898974
 30
0.0
 11
500.711776
 21
239.259044
 31
0.0
  0
LINE
  5
3EC
  8
0
 62
     0
 10
494.724505
 20
233.448549
 30
0.0
 11
496.974785
 21
235.698829
 31
0.0
  0
LINE
  5
3ED
  8
0
 62
     0
 10
498.174929
 20
236.898974
 30
0.0
 11
500.535
 21
239.259044
 31
0.0
  0
LINE
  5
3EE
  8
0
 62
     0
 10
494.650696
 20
233.551517
 30
0.0
 11
496.927612
 21
235.828433
 31
0.0
  0
LINE
  5
3EF
  8
0
 62
     0
 10
497.998153
 20
236.898974
 30
0.0
 11
500.358223
 21
239.259044
 31
0.0
  0
LINE
  5
3F0
  8
0
 62
     0
 10
494.586172
 20
233.66377
 30
0.0
 11
496.88044
 21
235.958038
 31
0.0
  0
LINE
  5
3F1
  8
0
 62
     0
 10
497.821376
 20
236.898974
 30
0.0
 11
500.181446
 21
239.259044
 31
0.0
  0
LINE
  5
3F2
  8
0
 62
     0
 10
494.531739
 20
233.786113
 30
0.0
 11
496.833268
 21
236.087642
 31
0.0
  0
LINE
  5
3F3
  8
0
 62
     0
 10
497.644599
 20
236.898974
 30
0.0
 11
500.00467
 21
239.259044
 31
0.0
  0
LINE
  5
3F4
  8
0
 62
     0
 10
494.48442
 20
233.915571
 30
0.0
 11
496.786096
 21
236.217247
 31
0.0
  0
LINE
  5
3F5
  8
0
 62
     0
 10
497.467823
 20
236.898974
 30
0.0
 11
499.827893
 21
239.259044
 31
0.0
  0
LINE
  5
3F6
  8
0
 62
     0
 10
494.437247
 20
234.045175
 30
0.0
 11
496.738924
 21
236.346851
 31
0.0
  0
LINE
  5
3F7
  8
0
 62
     0
 10
497.291046
 20
236.898974
 30
0.0
 11
499.651116
 21
239.259044
 31
0.0
  0
LINE
  5
3F8
  8
0
 62
     0
 10
494.390075
 20
234.17478
 30
0.0
 11
496.691751
 21
236.476456
 31
0.0
  0
LINE
  5
3F9
  8
0
 62
     0
 10
497.114269
 20
236.898974
 30
0.0
 11
499.474339
 21
239.259044
 31
0.0
  0
LINE
  5
3FA
  8
0
 62
     0
 10
494.342903
 20
234.304384
 30
0.0
 11
496.644579
 21
236.60606
 31
0.0
  0
LINE
  5
3FB
  8
0
 62
     0
 10
496.937492
 20
236.898974
 30
0.0
 11
499.297563
 21
239.259044
 31
0.0
  0
LINE
  5
3FC
  8
0
 62
     0
 10
494.295731
 20
234.433989
 30
0.0
 11
496.597407
 21
236.735665
 31
0.0
  0
LINE
  5
3FD
  8
0
 62
     0
 10
496.760716
 20
236.898974
 30
0.0
 11
499.120786
 21
239.259044
 31
0.0
  0
LINE
  5
3FE
  8
0
 62
     0
 10
494.248559
 20
234.563593
 30
0.0
 11
496.550235
 21
236.865269
 31
0.0
  0
LINE
  5
3FF
  8
0
 62
     0
 10
496.583939
 20
236.898974
 30
0.0
 11
498.944009
 21
239.259044
 31
0.0
  0
LINE
  5
400
  8
0
 62
     0
 10
494.201386
 20
234.693198
 30
0.0
 11
498.767233
 21
239.259044
 31
0.0
  0
LINE
  5
401
  8
0
 62
     0
 10
494.154214
 20
234.822802
 30
0.0
 11
498.590456
 21
239.259044
 31
0.0
  0
LINE
  5
402
  8
0
 62
     0
 10
494.107042
 20
234.952407
 30
0.0
 11
498.413679
 21
239.259044
 31
0.0
  0
LINE
  5
403
  8
0
 62
     0
 10
494.05987
 20
235.082011
 30
0.0
 11
498.236903
 21
239.259044
 31
0.0
  0
LINE
  5
404
  8
0
 62
     0
 10
494.012698
 20
235.211616
 30
0.0
 11
498.060126
 21
239.259044
 31
0.0
  0
LINE
  5
405
  8
0
 62
     0
 10
493.965526
 20
235.34122
 30
0.0
 11
497.883349
 21
239.259044
 31
0.0
  0
LINE
  5
406
  8
0
 62
     0
 10
493.918353
 20
235.470825
 30
0.0
 11
497.706572
 21
239.259044
 31
0.0
  0
LINE
  5
407
  8
0
 62
     0
 10
493.871181
 20
235.600429
 30
0.0
 11
497.529796
 21
239.259044
 31
0.0
  0
LINE
  5
408
  8
0
 62
     0
 10
493.824009
 20
235.730034
 30
0.0
 11
497.353019
 21
239.259044
 31
0.0
  0
LINE
  5
409
  8
0
 62
     0
 10
493.776837
 20
235.859638
 30
0.0
 11
497.176242
 21
239.259044
 31
0.0
  0
LINE
  5
40A
  8
0
 62
     0
 10
493.729665
 20
235.989243
 30
0.0
 11
496.999466
 21
239.259044
 31
0.0
  0
LINE
  5
40B
  8
0
 62
     0
 10
493.682492
 20
236.118847
 30
0.0
 11
496.822689
 21
239.259044
 31
0.0
  0
LINE
  5
40C
  8
0
 62
     0
 10
493.63532
 20
236.248452
 30
0.0
 11
496.645912
 21
239.259044
 31
0.0
  0
LINE
  5
40D
  8
0
 62
     0
 10
493.588148
 20
236.378056
 30
0.0
 11
496.469136
 21
239.259044
 31
0.0
  0
LINE
  5
40E
  8
0
 62
     0
 10
493.540976
 20
236.507661
 30
0.0
 11
496.292359
 21
239.259044
 31
0.0
  0
LINE
  5
40F
  8
0
 62
     0
 10
493.493804
 20
236.637265
 30
0.0
 11
496.115582
 21
239.259044
 31
0.0
  0
LINE
  5
410
  8
0
 62
     0
 10
493.446631
 20
236.76687
 30
0.0
 11
495.938806
 21
239.259044
 31
0.0
  0
LINE
  5
411
  8
0
 62
     0
 10
493.399459
 20
236.896474
 30
0.0
 11
495.762029
 21
239.259044
 31
0.0
  0
LINE
  5
412
  8
0
 62
     0
 10
493.352287
 20
237.026079
 30
0.0
 11
495.585252
 21
239.259044
 31
0.0
  0
LINE
  5
413
  8
0
 62
     0
 10
493.305115
 20
237.155683
 30
0.0
 11
495.408475
 21
239.259044
 31
0.0
  0
LINE
  5
414
  8
0
 62
     0
 10
493.257943
 20
237.285288
 30
0.0
 11
495.231699
 21
239.259044
 31
0.0
  0
LINE
  5
415
  8
0
 62
     0
 10
493.210771
 20
237.414892
 30
0.0
 11
495.054922
 21
239.259044
 31
0.0
  0
LINE
  5
416
  8
0
 62
     0
 10
493.163599
 20
237.544497
 30
0.0
 11
494.878145
 21
239.259044
 31
0.0
  0
LINE
  5
417
  8
0
 62
     0
 10
493.122666
 20
237.680341
 30
0.0
 11
494.701369
 21
239.259044
 31
0.0
  0
LINE
  5
418
  8
0
 62
     0
 10
493.09577
 20
237.830222
 30
0.0
 11
494.524592
 21
239.259044
 31
0.0
  0
LINE
  5
419
  8
0
 62
     0
 10
493.087007
 20
237.998236
 30
0.0
 11
494.347695
 21
239.258923
 31
0.0
  0
LINE
  5
41A
  8
0
 62
     0
 10
493.104572
 20
238.192577
 30
0.0
 11
494.153353
 21
239.241359
 31
0.0
  0
LINE
  5
41B
  8
0
 62
     0
 10
493.170421
 20
238.435203
 30
0.0
 11
493.910728
 21
239.17551
 31
0.0
  0
LINE
  5
41C
  8
0
 62
     0
 10
497.045439
 20
229.228745
 30
0.0
 11
500.165801
 21
232.349108
 31
0.0
  0
LINE
  5
41D
  8
0
 62
     0
 10
505.164849
 20
237.348156
 30
0.0
 11
507.075737
 21
239.259044
 31
0.0
  0
LINE
  5
41E
  8
0
 62
     0
 10
500.782217
 20
232.965523
 30
0.0
 11
503.476953
 21
235.66026
 31
0.0
  0
LINE
  5
41F
  8
0
 62
     0
 10
497.222215
 20
229.228745
 30
0.0
 11
500.101096
 21
232.107626
 31
0.0
  0
LINE
  5
420
  8
0
 62
     0
 10
505.212021
 20
237.218551
 30
0.0
 11
507.252514
 21
239.259044
 31
0.0
  0
LINE
  5
421
  8
0
 62
     0
 10
500.958993
 20
232.965523
 30
0.0
 11
503.524125
 21
235.530655
 31
0.0
  0
LINE
  5
422
  8
0
 62
     0
 10
497.398992
 20
229.228745
 30
0.0
 11
500.036391
 21
231.866145
 31
0.0
  0
LINE
  5
423
  8
0
 62
     0
 10
505.259193
 20
237.088946
 30
0.0
 11
507.429291
 21
239.259044
 31
0.0
  0
LINE
  5
424
  8
0
 62
     0
 10
501.13577
 20
232.965523
 30
0.0
 11
503.571297
 21
235.401051
 31
0.0
  0
LINE
  5
425
  8
0
 62
     0
 10
497.575769
 20
229.228745
 30
0.0
 11
499.971687
 21
231.624663
 31
0.0
  0
LINE
  5
426
  8
0
 62
     0
 10
505.306365
 20
236.959342
 30
0.0
 11
507.606067
 21
239.259044
 31
0.0
  0
LINE
  5
427
  8
0
 62
     0
 10
501.312547
 20
232.965523
 30
0.0
 11
503.61847
 21
235.271446
 31
0.0
  0
LINE
  5
428
  8
0
 62
     0
 10
497.752545
 20
229.228745
 30
0.0
 11
499.906982
 21
231.383182
 31
0.0
  0
LINE
  5
429
  8
0
 62
     0
 10
505.353538
 20
236.829737
 30
0.0
 11
507.662511
 21
239.138711
 31
0.0
  0
LINE
  5
42A
  8
0
 62
     0
 10
501.363965
 20
232.840165
 30
0.0
 11
503.665642
 21
235.141842
 31
0.0
  0
LINE
  5
42B
  8
0
 62
     0
 10
497.929322
 20
229.228745
 30
0.0
 11
499.842277
 21
231.1417
 31
0.0
  0
LINE
  5
42C
  8
0
 62
     0
 10
505.40071
 20
236.700133
 30
0.0
 11
507.709684
 21
239.009107
 31
0.0
  0
LINE
  5
42D
  8
0
 62
     0
 10
501.411138
 20
232.710561
 30
0.0
 11
503.712814
 21
235.012237
 31
0.0
  0
LINE
  5
42E
  8
0
 62
     0
 10
498.106099
 20
229.228745
 30
0.0
 11
499.777572
 21
230.900219
 31
0.0
  0
LINE
  5
42F
  8
0
 62
     0
 10
505.447882
 20
236.570528
 30
0.0
 11
507.756856
 21
238.879502
 31
0.0
  0
LINE
  5
430
  8
0
 62
     0
 10
501.45831
 20
232.580956
 30
0.0
 11
503.759986
 21
234.882633
 31
0.0
  0
LINE
  5
431
  8
0
 62
     0
 10
498.282876
 20
229.228745
 30
0.0
 11
499.712868
 21
230.658737
 31
0.0
  0
LINE
  5
432
  8
0
 62
     0
 10
505.495054
 20
236.440924
 30
0.0
 11
507.804028
 21
238.749898
 31
0.0
  0
LINE
  5
433
  8
0
 62
     0
 10
501.505482
 20
232.451352
 30
0.0
 11
503.807158
 21
234.753028
 31
0.0
  0
LINE
  5
434
  8
0
 62
     0
 10
498.459652
 20
229.228745
 30
0.0
 11
499.648163
 21
230.417256
 31
0.0
  0
LINE
  5
435
  8
0
 62
     0
 10
505.542226
 20
236.311319
 30
0.0
 11
507.8512
 21
238.620293
 31
0.0
  0
LINE
  5
436
  8
0
 62
     0
 10
501.552654
 20
232.321747
 30
0.0
 11
503.85433
 21
234.623423
 31
0.0
  0
LINE
  5
437
  8
0
 62
     0
 10
498.636429
 20
229.228745
 30
0.0
 11
499.583458
 21
230.175774
 31
0.0
  0
LINE
  5
438
  8
0
 62
     0
 10
505.589399
 20
236.181715
 30
0.0
 11
507.898372
 21
238.490689
 31
0.0
  0
LINE
  5
439
  8
0
 62
     0
 10
501.599826
 20
232.192143
 30
0.0
 11
503.901503
 21
234.493819
 31
0.0
  0
LINE
  5
43A
  8
0
 62
     0
 10
498.813206
 20
229.228745
 30
0.0
 11
499.518753
 21
229.934293
 31
0.0
  0
LINE
  5
43B
  8
0
 62
     0
 10
505.636571
 20
236.05211
 30
0.0
 11
507.945544
 21
238.361084
 31
0.0
  0
LINE
  5
43C
  8
0
 62
     0
 10
501.646999
 20
232.062538
 30
0.0
 11
503.948675
 21
234.364214
 31
0.0
  0
LINE
  5
43D
  8
0
 62
     0
 10
498.989982
 20
229.228745
 30
0.0
 11
499.454049
 21
229.692812
 31
0.0
  0
LINE
  5
43E
  8
0
 62
     0
 10
505.683743
 20
235.922506
 30
0.0
 11
507.992717
 21
238.23148
 31
0.0
  0
LINE
  5
43F
  8
0
 62
     0
 10
501.694171
 20
231.932934
 30
0.0
 11
503.995847
 21
234.23461
 31
0.0
  0
LINE
  5
440
  8
0
 62
     0
 10
499.166759
 20
229.228745
 30
0.0
 11
499.389344
 21
229.45133
 31
0.0
  0
LINE
  5
441
  8
0
 62
     0
 10
505.730915
 20
235.792901
 30
0.0
 11
508.039889
 21
238.101875
 31
0.0
  0
LINE
  5
442
  8
0
 62
     0
 10
501.741343
 20
231.803329
 30
0.0
 11
504.043019
 21
234.105005
 31
0.0
  0
LINE
  5
443
  8
0
 62
     0
 10
501.788515
 20
231.673725
 30
0.0
 11
504.090191
 21
233.975401
 31
0.0
  0
LINE
  5
444
  8
0
 62
     0
 10
505.778087
 20
235.663297
 30
0.0
 11
508.087061
 21
237.972271
 31
0.0
  0
LINE
  5
445
  8
0
 62
     0
 10
501.835687
 20
231.54412
 30
0.0
 11
504.137364
 21
233.845796
 31
0.0
  0
LINE
  5
446
  8
0
 62
     0
 10
505.825259
 20
235.533692
 30
0.0
 11
508.134233
 21
237.842666
 31
0.0
  0
LINE
  5
447
  8
0
 62
     0
 10
501.882859
 20
231.414516
 30
0.0
 11
504.184536
 21
233.716192
 31
0.0
  0
LINE
  5
448
  8
0
 62
     0
 10
505.872432
 20
235.404088
 30
0.0
 11
508.181405
 21
237.713062
 31
0.0
  0
LINE
  5
449
  8
0
 62
     0
 10
501.930032
 20
231.284911
 30
0.0
 11
504.231708
 21
233.586587
 31
0.0
  0
LINE
  5
44A
  8
0
 62
     0
 10
505.919604
 20
235.274483
 30
0.0
 11
508.228578
 21
237.583457
 31
0.0
  0
LINE
  5
44B
  8
0
 62
     0
 10
501.977204
 20
231.155307
 30
0.0
 11
504.27888
 21
233.456983
 31
0.0
  0
LINE
  5
44C
  8
0
 62
     0
 10
505.966776
 20
235.144879
 30
0.0
 11
508.27575
 21
237.453853
 31
0.0
  0
LINE
  5
44D
  8
0
 62
     0
 10
502.024376
 20
231.025702
 30
0.0
 11
504.326052
 21
233.327378
 31
0.0
  0
LINE
  5
44E
  8
0
 62
     0
 10
506.013948
 20
235.015274
 30
0.0
 11
508.322922
 21
237.324248
 31
0.0
  0
LINE
  5
44F
  8
0
 62
     0
 10
502.071548
 20
230.896098
 30
0.0
 11
504.373224
 21
233.197774
 31
0.0
  0
LINE
  5
450
  8
0
 62
     0
 10
506.06112
 20
234.88567
 30
0.0
 11
508.370094
 21
237.194644
 31
0.0
  0
LINE
  5
451
  8
0
 62
     0
 10
502.11872
 20
230.766493
 30
0.0
 11
504.420397
 21
233.068169
 31
0.0
  0
LINE
  5
452
  8
0
 62
     0
 10
506.108293
 20
234.756065
 30
0.0
 11
508.417266
 21
237.065039
 31
0.0
  0
LINE
  5
453
  8
0
 62
     0
 10
502.165893
 20
230.636889
 30
0.0
 11
504.467569
 21
232.938565
 31
0.0
  0
LINE
  5
454
  8
0
 62
     0
 10
506.155465
 20
234.626461
 30
0.0
 11
508.464438
 21
236.935435
 31
0.0
  0
LINE
  5
455
  8
0
 62
     0
 10
502.213065
 20
230.507284
 30
0.0
 11
504.514741
 21
232.80896
 31
0.0
  0
LINE
  5
456
  8
0
 62
     0
 10
506.202637
 20
234.496856
 30
0.0
 11
508.511611
 21
236.80583
 31
0.0
  0
LINE
  5
457
  8
0
 62
     0
 10
502.260237
 20
230.37768
 30
0.0
 11
504.561913
 21
232.679356
 31
0.0
  0
LINE
  5
458
  8
0
 62
     0
 10
506.249809
 20
234.367252
 30
0.0
 11
508.558783
 21
236.676225
 31
0.0
  0
LINE
  5
459
  8
0
 62
     0
 10
502.307409
 20
230.248075
 30
0.0
 11
504.609085
 21
232.549751
 31
0.0
  0
LINE
  5
45A
  8
0
 62
     0
 10
506.296981
 20
234.237647
 30
0.0
 11
508.605955
 21
236.546621
 31
0.0
  0
LINE
  5
45B
  8
0
 62
     0
 10
502.354581
 20
230.118471
 30
0.0
 11
504.656258
 21
232.420147
 31
0.0
  0
LINE
  5
45C
  8
0
 62
     0
 10
506.344153
 20
234.108043
 30
0.0
 11
508.653127
 21
236.417016
 31
0.0
  0
LINE
  5
45D
  8
0
 62
     0
 10
502.401753
 20
229.988866
 30
0.0
 11
504.70343
 21
232.290542
 31
0.0
  0
LINE
  5
45E
  8
0
 62
     0
 10
506.391326
 20
233.978438
 30
0.0
 11
508.700299
 21
236.287412
 31
0.0
  0
LINE
  5
45F
  8
0
 62
     0
 10
502.448926
 20
229.859262
 30
0.0
 11
504.768497
 21
232.178833
 31
0.0
  0
LINE
  5
460
  8
0
 62
     0
 10
506.438498
 20
233.848834
 30
0.0
 11
508.747472
 21
236.157807
 31
0.0
  0
LINE
  5
461
  8
0
 62
     0
 10
502.496098
 20
229.729657
 30
0.0
 11
504.945274
 21
232.178833
 31
0.0
  0
LINE
  5
462
  8
0
 62
     0
 10
506.48567
 20
233.719229
 30
0.0
 11
508.794644
 21
236.028203
 31
0.0
  0
LINE
  5
463
  8
0
 62
     0
 10
502.54327
 20
229.600053
 30
0.0
 11
505.122051
 21
232.178833
 31
0.0
  0
LINE
  5
464
  8
0
 62
     0
 10
506.532842
 20
233.589625
 30
0.0
 11
508.841816
 21
235.898598
 31
0.0
  0
LINE
  5
465
  8
0
 62
     0
 10
502.590442
 20
229.470448
 30
0.0
 11
505.298827
 21
232.178833
 31
0.0
  0
LINE
  5
466
  8
0
 62
     0
 10
506.580014
 20
233.46002
 30
0.0
 11
508.888988
 21
235.768994
 31
0.0
  0
LINE
  5
467
  8
0
 62
     0
 10
502.637614
 20
229.340843
 30
0.0
 11
505.475604
 21
232.178833
 31
0.0
  0
LINE
  5
468
  8
0
 62
     0
 10
506.627187
 20
233.330416
 30
0.0
 11
508.93616
 21
235.639389
 31
0.0
  0
LINE
  5
469
  8
0
 62
     0
 10
502.702293
 20
229.228745
 30
0.0
 11
505.652381
 21
232.178833
 31
0.0
  0
LINE
  5
46A
  8
0
 62
     0
 10
506.674359
 20
233.200811
 30
0.0
 11
508.983333
 21
235.509785
 31
0.0
  0
LINE
  5
46B
  8
0
 62
     0
 10
502.87907
 20
229.228745
 30
0.0
 11
505.829157
 21
232.178833
 31
0.0
  0
LINE
  5
46C
  8
0
 62
     0
 10
506.721531
 20
233.071207
 30
0.0
 11
509.030505
 21
235.38018
 31
0.0
  0
LINE
  5
46D
  8
0
 62
     0
 10
503.055846
 20
229.228745
 30
0.0
 11
506.005934
 21
232.178833
 31
0.0
  0
LINE
  5
46E
  8
0
 62
     0
 10
506.768703
 20
232.941602
 30
0.0
 11
509.077677
 21
235.250576
 31
0.0
  0
LINE
  5
46F
  8
0
 62
     0
 10
503.232623
 20
229.228745
 30
0.0
 11
506.182711
 21
232.178833
 31
0.0
  0
LINE
  5
470
  8
0
 62
     0
 10
506.815875
 20
232.811998
 30
0.0
 11
509.124849
 21
235.120971
 31
0.0
  0
LINE
  5
471
  8
0
 62
     0
 10
503.4094
 20
229.228745
 30
0.0
 11
506.359488
 21
232.178833
 31
0.0
  0
LINE
  5
472
  8
0
 62
     0
 10
506.863048
 20
232.682393
 30
0.0
 11
509.172021
 21
234.991367
 31
0.0
  0
LINE
  5
473
  8
0
 62
     0
 10
503.586176
 20
229.228745
 30
0.0
 11
506.536264
 21
232.178833
 31
0.0
  0
LINE
  5
474
  8
0
 62
     0
 10
506.91022
 20
232.552789
 30
0.0
 11
509.219193
 21
234.861762
 31
0.0
  0
LINE
  5
475
  8
0
 62
     0
 10
503.762953
 20
229.228745
 30
0.0
 11
506.713041
 21
232.178833
 31
0.0
  0
LINE
  5
476
  8
0
 62
     0
 10
506.957392
 20
232.423184
 30
0.0
 11
509.266366
 21
234.732158
 31
0.0
  0
LINE
  5
477
  8
0
 62
     0
 10
503.93973
 20
229.228745
 30
0.0
 11
506.889818
 21
232.178833
 31
0.0
  0
LINE
  5
478
  8
0
 62
     0
 10
507.004564
 20
232.29358
 30
0.0
 11
509.313538
 21
234.602553
 31
0.0
  0
LINE
  5
479
  8
0
 62
     0
 10
504.116506
 20
229.228745
 30
0.0
 11
509.36071
 21
234.472949
 31
0.0
  0
LINE
  5
47A
  8
0
 62
     0
 10
504.293283
 20
229.228745
 30
0.0
 11
509.407882
 21
234.343344
 31
0.0
  0
LINE
  5
47B
  8
0
 62
     0
 10
504.47006
 20
229.228745
 30
0.0
 11
509.455054
 21
234.21374
 31
0.0
  0
LINE
  5
47C
  8
0
 62
     0
 10
504.646837
 20
229.228745
 30
0.0
 11
509.502227
 21
234.084135
 31
0.0
  0
LINE
  5
47D
  8
0
 62
     0
 10
504.823613
 20
229.228745
 30
0.0
 11
509.549399
 21
233.954531
 31
0.0
  0
LINE
  5
47E
  8
0
 62
     0
 10
505.00039
 20
229.228745
 30
0.0
 11
509.596571
 21
233.824926
 31
0.0
  0
LINE
  5
47F
  8
0
 62
     0
 10
505.177167
 20
229.228745
 30
0.0
 11
509.643743
 21
233.695322
 31
0.0
  0
LINE
  5
480
  8
0
 62
     0
 10
505.353943
 20
229.228745
 30
0.0
 11
509.690915
 21
233.565717
 31
0.0
  0
LINE
  5
481
  8
0
 62
     0
 10
505.53072
 20
229.228745
 30
0.0
 11
509.738087
 21
233.436113
 31
0.0
  0
LINE
  5
482
  8
0
 62
     0
 10
505.707497
 20
229.228745
 30
0.0
 11
509.78526
 21
233.306508
 31
0.0
  0
LINE
  5
483
  8
0
 62
     0
 10
505.884273
 20
229.228745
 30
0.0
 11
509.832432
 21
233.176904
 31
0.0
  0
LINE
  5
484
  8
0
 62
     0
 10
506.06105
 20
229.228745
 30
0.0
 11
509.879604
 21
233.047299
 31
0.0
  0
LINE
  5
485
  8
0
 62
     0
 10
506.237827
 20
229.228745
 30
0.0
 11
509.926776
 21
232.917695
 31
0.0
  0
LINE
  5
486
  8
0
 62
     0
 10
506.414604
 20
229.228745
 30
0.0
 11
509.973948
 21
232.78809
 31
0.0
  0
LINE
  5
487
  8
0
 62
     0
 10
506.59138
 20
229.228745
 30
0.0
 11
510.021121
 21
232.658486
 31
0.0
  0
LINE
  5
488
  8
0
 62
     0
 10
506.768157
 20
229.228745
 30
0.0
 11
510.068293
 21
232.528881
 31
0.0
  0
LINE
  5
489
  8
0
 62
     0
 10
506.944934
 20
229.228745
 30
0.0
 11
510.115465
 21
232.399277
 31
0.0
  0
LINE
  5
48A
  8
0
 62
     0
 10
507.12171
 20
229.228745
 30
0.0
 11
510.162637
 21
232.269672
 31
0.0
  0
LINE
  5
48B
  8
0
 62
     0
 10
507.298487
 20
229.228745
 30
0.0
 11
510.209809
 21
232.140068
 31
0.0
  0
LINE
  5
48C
  8
0
 62
     0
 10
507.475264
 20
229.228745
 30
0.0
 11
510.256981
 21
232.010463
 31
0.0
  0
LINE
  5
48D
  8
0
 62
     0
 10
507.65204
 20
229.228745
 30
0.0
 11
510.304154
 21
231.880859
 31
0.0
  0
LINE
  5
48E
  8
0
 62
     0
 10
507.828817
 20
229.228745
 30
0.0
 11
510.351326
 21
231.751254
 31
0.0
  0
LINE
  5
48F
  8
0
 62
     0
 10
508.005594
 20
229.228745
 30
0.0
 11
510.398498
 21
231.62165
 31
0.0
  0
LINE
  5
490
  8
0
 62
     0
 10
508.18237
 20
229.228745
 30
0.0
 11
510.44567
 21
231.492045
 31
0.0
  0
LINE
  5
491
  8
0
 62
     0
 10
508.359147
 20
229.228745
 30
0.0
 11
510.492842
 21
231.362441
 31
0.0
  0
LINE
  5
492
  8
0
 62
     0
 10
508.535924
 20
229.228745
 30
0.0
 11
510.540015
 21
231.232836
 31
0.0
  0
LINE
  5
493
  8
0
 62
     0
 10
508.712701
 20
229.228745
 30
0.0
 11
510.587187
 21
231.103232
 31
0.0
  0
LINE
  5
494
  8
0
 62
     0
 10
508.889477
 20
229.228745
 30
0.0
 11
510.634359
 21
230.973627
 31
0.0
  0
LINE
  5
495
  8
0
 62
     0
 10
509.066254
 20
229.228745
 30
0.0
 11
510.677904
 21
230.840395
 31
0.0
  0
LINE
  5
496
  8
0
 62
     0
 10
509.243031
 20
229.228745
 30
0.0
 11
510.708366
 21
230.694081
 31
0.0
  0
LINE
  5
497
  8
0
 62
     0
 10
509.419807
 20
229.228745
 30
0.0
 11
510.721892
 21
230.53083
 31
0.0
  0
LINE
  5
498
  8
0
 62
     0
 10
509.607059
 20
229.239221
 30
0.0
 11
510.711636
 21
230.343798
 31
0.0
  0
LINE
  5
499
  8
0
 62
     0
 10
509.834569
 20
229.289953
 30
0.0
 11
510.660904
 21
230.116288
 31
0.0
  0
LINE
  5
49A
  8
0
 62
     0
 10
510.192016
 20
229.470624
 30
0.0
 11
510.480233
 21
229.758841
 31
0.0
  0
ENDBLK
  5
49B
  8
0
  0
BLOCK
  8
0
  2
*X6
 70
     1
 10
0.0
 20
0.0
 30
0.0
  3
*X6
  1

  0
LINE
  5
49D
  8
0
 62
     0
 10
521.855657
 20
236.361294
 30
0.0
 11
523.628776
 21
238.134413
 31
0.0
  0
LINE
  5
49E
  8
0
 62
     0
 10
534.221915
 20
248.727552
 30
0.0
 11
535.995035
 21
250.500672
 31
0.0
  0
LINE
  5
49F
  8
0
 62
     0
 10
524.534289
 20
239.039926
 30
0.0
 11
527.663892
 21
242.169529
 31
0.0
  0
LINE
  5
4A0
  8
0
 62
     0
 10
532.049755
 20
246.555392
 30
0.0
 11
533.316402
 21
247.822039
 31
0.0
  0
LINE
  5
4A1
  8
0
 62
     0
 10
529.443775
 20
243.949412
 30
0.0
 11
531.223659
 21
245.729296
 31
0.0
  0
LINE
  5
4A2
  8
0
 62
     0
 10
521.763177
 20
236.445591
 30
0.0
 11
523.534929
 21
238.217342
 31
0.0
  0
LINE
  5
4A3
  8
0
 62
     0
 10
534.138986
 20
248.8214
 30
0.0
 11
535.910737
 21
250.593151
 31
0.0
  0
LINE
  5
4A4
  8
0
 62
     0
 10
524.439317
 20
239.121731
 30
0.0
 11
525.70332
 21
240.385734
 31
0.0
  0
LINE
  5
4A5
  8
0
 62
     0
 10
531.970613
 20
246.653027
 30
0.0
 11
533.234598
 21
247.917011
 31
0.0
  0
LINE
  5
4A6
  8
0
 62
     0
 10
525.884008
 20
240.566422
 30
0.0
 11
527.663892
 21
242.346305
 31
0.0
  0
LINE
  5
4A7
  8
0
 62
     0
 10
529.443775
 20
244.126189
 30
0.0
 11
531.223659
 21
245.906073
 31
0.0
  0
LINE
  5
4A8
  8
0
 62
     0
 10
521.671804
 20
236.530995
 30
0.0
 11
523.442559
 21
238.301749
 31
0.0
  0
LINE
  5
4A9
  8
0
 62
     0
 10
534.05458
 20
248.91377
 30
0.0
 11
535.825334
 21
250.684524
 31
0.0
  0
LINE
  5
4AA
  8
0
 62
     0
 10
524.346129
 20
239.20532
 30
0.0
 11
525.608182
 21
240.467372
 31
0.0
  0
LINE
  5
4AB
  8
0
 62
     0
 10
531.888956
 20
246.748147
 30
0.0
 11
533.151009
 21
248.010199
 31
0.0
  0
LINE
  5
4AC
  8
0
 62
     0
 10
525.884008
 20
240.743198
 30
0.0
 11
527.663892
 21
242.523082
 31
0.0
  0
LINE
  5
4AD
  8
0
 62
     0
 10
529.443775
 20
244.302966
 30
0.0
 11
531.223659
 21
246.082849
 31
0.0
  0
LINE
  5
4AE
  8
0
 62
     0
 10
521.581536
 20
236.617503
 30
0.0
 11
523.351663
 21
238.38763
 31
0.0
  0
LINE
  5
4AF
  8
0
 62
     0
 10
533.968698
 20
249.004666
 30
0.0
 11
535.738826
 21
250.774793
 31
0.0
  0
LINE
  5
4B0
  8
0
 62
     0
 10
524.254719
 20
239.290687
 30
0.0
 11
525.515559
 21
240.551526
 31
0.0
  0
LINE
  5
4B1
  8
0
 62
     0
 10
531.804802
 20
246.84077
 30
0.0
 11
533.065642
 21
248.101609
 31
0.0
  0
LINE
  5
4B2
  8
0
 62
     0
 10
525.884008
 20
240.919975
 30
0.0
 11
527.663892
 21
242.699859
 31
0.0
  0
LINE
  5
4B3
  8
0
 62
     0
 10
529.443775
 20
244.479742
 30
0.0
 11
531.223659
 21
246.259626
 31
0.0
  0
LINE
  5
4B4
  8
0
 62
     0
 10
521.492371
 20
236.705115
 30
0.0
 11
523.26224
 21
238.474984
 31
0.0
  0
LINE
  5
4B5
  8
0
 62
     0
 10
533.881345
 20
249.094089
 30
0.0
 11
535.651213
 21
250.863957
 31
0.0
  0
LINE
  5
4B6
  8
0
 62
     0
 10
524.165084
 20
239.377828
 30
0.0
 11
525.425424
 21
240.638168
 31
0.0
  0
LINE
  5
4B7
  8
0
 62
     0
 10
531.718161
 20
246.930904
 30
0.0
 11
532.9785
 21
248.191244
 31
0.0
  0
LINE
  5
4B8
  8
0
 62
     0
 10
525.884008
 20
241.096752
 30
0.0
 11
527.663892
 21
242.876635
 31
0.0
  0
LINE
  5
4B9
  8
0
 62
     0
 10
529.443775
 20
244.656519
 30
0.0
 11
531.223659
 21
246.436403
 31
0.0
  0
LINE
  5
4BA
  8
0
 62
     0
 10
521.404311
 20
236.793831
 30
0.0
 11
523.174288
 21
238.563809
 31
0.0
  0
LINE
  5
4BB
  8
0
 62
     0
 10
533.79252
 20
249.18204
 30
0.0
 11
535.562497
 21
250.952018
 31
0.0
  0
LINE
  5
4BC
  8
0
 62
     0
 10
524.077222
 20
239.466743
 30
0.0
 11
525.337773
 21
240.727294
 31
0.0
  0
LINE
  5
4BD
  8
0
 62
     0
 10
531.629035
 20
247.018556
 30
0.0
 11
532.889586
 21
248.279106
 31
0.0
  0
LINE
  5
4BE
  8
0
 62
     0
 10
525.884008
 20
241.273529
 30
0.0
 11
527.663892
 21
243.053412
 31
0.0
  0
LINE
  5
4BF
  8
0
 62
     0
 10
529.443775
 20
244.833296
 30
0.0
 11
531.223659
 21
246.613179
 31
0.0
  0
LINE
  5
4C0
  8
0
 62
     0
 10
521.317354
 20
236.883651
 30
0.0
 11
523.087809
 21
238.654106
 31
0.0
  0
LINE
  5
4C1
  8
0
 62
     0
 10
533.702223
 20
249.26852
 30
0.0
 11
535.472678
 21
251.038975
 31
0.0
  0
LINE
  5
4C2
  8
0
 62
     0
 10
523.991134
 20
239.557431
 30
0.0
 11
525.252607
 21
240.818904
 31
0.0
  0
LINE
  5
4C3
  8
0
 62
     0
 10
531.537424
 20
247.103722
 30
0.0
 11
532.798898
 21
248.365195
 31
0.0
  0
LINE
  5
4C4
  8
0
 62
     0
 10
525.884008
 20
241.450305
 30
0.0
 11
527.663892
 21
243.230189
 31
0.0
  0
LINE
  5
4C5
  8
0
 62
     0
 10
529.443775
 20
245.010072
 30
0.0
 11
531.223659
 21
246.789956
 31
0.0
  0
LINE
  5
4C6
  8
0
 62
     0
 10
521.231501
 20
236.974575
 30
0.0
 11
523.002802
 21
238.745876
 31
0.0
  0
LINE
  5
4C7
  8
0
 62
     0
 10
533.610452
 20
249.353526
 30
0.0
 11
535.381754
 21
251.124828
 31
0.0
  0
LINE
  5
4C8
  8
0
 62
     0
 10
523.906822
 20
239.649896
 30
0.0
 11
525.169934
 21
240.913008
 31
0.0
  0
LINE
  5
4C9
  8
0
 62
     0
 10
531.443321
 20
247.186394
 30
0.0
 11
532.706433
 21
248.449507
 31
0.0
  0
LINE
  5
4CA
  8
0
 62
     0
 10
525.884008
 20
241.627082
 30
0.0
 11
527.653691
 21
243.396765
 31
0.0
  0
LINE
  5
4CB
  8
0
 62
     0
 10
529.443775
 20
245.186849
 30
0.0
 11
531.223659
 21
246.966733
 31
0.0
  0
LINE
  5
4CC
  8
0
 62
     0
 10
521.146754
 20
237.066605
 30
0.0
 11
522.919273
 21
238.839123
 31
0.0
  0
LINE
  5
4CD
  8
0
 62
     0
 10
533.517205
 20
249.437056
 30
0.0
 11
535.289724
 21
251.209575
 31
0.0
  0
LINE
  5
4CE
  8
0
 62
     0
 10
523.824291
 20
239.744142
 30
0.0
 11
525.089768
 21
241.009619
 31
0.0
  0
LINE
  5
4CF
  8
0
 62
     0
 10
531.323119
 20
247.24297
 30
0.0
 11
532.612187
 21
248.532037
 31
0.0
  0
LINE
  5
4D0
  8
0
 62
     0
 10
525.884008
 20
241.803859
 30
0.0
 11
527.56549
 21
243.485341
 31
0.0
  0
LINE
  5
4D1
  8
0
 62
     0
 10
529.443775
 20
245.363626
 30
0.0
 11
531.224284
 21
247.144135
 31
0.0
  0
LINE
  5
4D2
  8
0
 62
     0
 10
521.063114
 20
237.159742
 30
0.0
 11
522.837223
 21
238.93385
 31
0.0
  0
LINE
  5
4D3
  8
0
 62
     0
 10
533.422478
 20
249.519106
 30
0.0
 11
535.196587
 21
251.293214
 31
0.0
  0
LINE
  5
4D4
  8
0
 62
     0
 10
523.74355
 20
239.840177
 30
0.0
 11
525.012128
 21
241.108755
 31
0.0
  0
LINE
  5
4D5
  8
0
 62
     0
 10
529.443775
 20
245.540402
 30
0.0
 11
532.516152
 21
248.612779
 31
0.0
  0
LINE
  5
4D6
  8
0
 62
     0
 10
525.884008
 20
241.980635
 30
0.0
 11
527.469956
 21
243.566584
 31
0.0
  0
LINE
  5
4D7
  8
0
 62
     0
 10
520.980584
 20
237.253988
 30
0.0
 11
522.756659
 21
239.030063
 31
0.0
  0
LINE
  5
4D8
  8
0
 62
     0
 10
533.326265
 20
249.59967
 30
0.0
 11
535.10234
 21
251.375744
 31
0.0
  0
LINE
  5
4D9
  8
0
 62
     0
 10
523.664606
 20
239.93801
 30
0.0
 11
524.937041
 21
241.210445
 31
0.0
  0
LINE
  5
4DA
  8
0
 62
     0
 10
529.443775
 20
245.717179
 30
0.0
 11
532.418319
 21
248.691723
 31
0.0
  0
LINE
  5
4DB
  8
0
 62
     0
 10
525.884008
 20
242.157412
 30
0.0
 11
527.374422
 21
243.647826
 31
0.0
  0
LINE
  5
4DC
  8
0
 62
     0
 10
520.899166
 20
237.349347
 30
0.0
 11
522.677587
 21
239.127768
 31
0.0
  0
LINE
  5
4DD
  8
0
 62
     0
 10
533.22856
 20
249.678741
 30
0.0
 11
535.006981
 21
251.457162
 31
0.0
  0
LINE
  5
4DE
  8
0
 62
     0
 10
523.587471
 20
240.037652
 30
0.0
 11
524.86454
 21
241.314721
 31
0.0
  0
LINE
  5
4DF
  8
0
 62
     0
 10
529.443775
 20
245.893956
 30
0.0
 11
532.318677
 21
248.768857
 31
0.0
  0
LINE
  5
4E0
  8
0
 62
     0
 10
525.884008
 20
242.334189
 30
0.0
 11
527.278888
 21
243.729069
 31
0.0
  0
LINE
  5
4E1
  8
0
 62
     0
 10
520.818864
 20
237.445822
 30
0.0
 11
522.600016
 21
239.226974
 31
0.0
  0
LINE
  5
4E2
  8
0
 62
     0
 10
533.129355
 20
249.756312
 30
0.0
 11
534.910507
 21
251.537464
 31
0.0
  0
LINE
  5
4E3
  8
0
 62
     0
 10
523.512161
 20
240.139118
 30
0.0
 11
524.794664
 21
241.421622
 31
0.0
  0
LINE
  5
4E4
  8
0
 62
     0
 10
529.443775
 20
246.070733
 30
0.0
 11
532.217211
 21
248.844168
 31
0.0
  0
LINE
  5
4E5
  8
0
 62
     0
 10
525.884008
 20
242.510965
 30
0.0
 11
527.183355
 21
243.810312
 31
0.0
  0
LINE
  5
4E6
  8
0
 62
     0
 10
520.739682
 20
237.543416
 30
0.0
 11
522.523954
 21
239.327688
 31
0.0
  0
LINE
  5
4E7
  8
0
 62
     0
 10
533.02864
 20
249.832374
 30
0.0
 11
534.812913
 21
251.616647
 31
0.0
  0
LINE
  5
4E8
  8
0
 62
     0
 10
523.43869
 20
240.242424
 30
0.0
 11
524.727463
 21
241.531197
 31
0.0
  0
LINE
  5
4E9
  8
0
 62
     0
 10
529.443775
 20
246.247509
 30
0.0
 11
532.113904
 21
248.917639
 31
0.0
  0
LINE
  5
4EA
  8
0
 62
     0
 10
525.825147
 20
242.628881
 30
0.0
 11
527.087821
 21
243.891555
 31
0.0
  0
LINE
  5
4EB
  8
0
 62
     0
 10
520.661623
 20
237.642134
 30
0.0
 11
522.449413
 21
239.429923
 31
0.0
  0
LINE
  5
4EC
  8
0
 62
     0
 10
532.926405
 20
249.906916
 30
0.0
 11
534.714195
 21
251.694706
 31
0.0
  0
LINE
  5
4ED
  8
0
 62
     0
 10
523.367079
 20
240.34759
 30
0.0
 11
524.662991
 21
241.643502
 31
0.0
  0
LINE
  5
4EE
  8
0
 62
     0
 10
529.443775
 20
246.424286
 30
0.0
 11
532.008739
 21
248.98925
 31
0.0
  0
LINE
  5
4EF
  8
0
 62
     0
 10
525.729613
 20
242.710124
 30
0.0
 11
526.992287
 21
243.972798
 31
0.0
  0
LINE
  5
4F0
  8
0
 62
     0
 10
520.584693
 20
237.74198
 30
0.0
 11
522.376403
 21
239.533691
 31
0.0
  0
LINE
  5
4F1
  8
0
 62
     0
 10
532.822638
 20
249.979926
 30
0.0
 11
534.614348
 21
251.771636
 31
0.0
  0
LINE
  5
4F2
  8
0
 62
     0
 10
523.297348
 20
240.454636
 30
0.0
 11
524.601314
 21
241.758602
 31
0.0
  0
LINE
  5
4F3
  8
0
 62
     0
 10
529.443775
 20
246.601063
 30
0.0
 11
531.901693
 21
249.05898
 31
0.0
  0
LINE
  5
4F4
  8
0
 62
     0
 10
525.634079
 20
242.791367
 30
0.0
 11
526.896753
 21
244.054041
 31
0.0
  0
LINE
  5
4F5
  8
0
 62
     0
 10
520.508897
 20
237.842961
 30
0.0
 11
522.304939
 21
239.639004
 31
0.0
  0
LINE
  5
4F6
  8
0
 62
     0
 10
532.717325
 20
250.051389
 30
0.0
 11
534.513367
 21
251.847432
 31
0.0
  0
LINE
  5
4F7
  8
0
 62
     0
 10
523.229524
 20
240.563588
 30
0.0
 11
524.542508
 21
241.876572
 31
0.0
  0
LINE
  5
4F8
  8
0
 62
     0
 10
529.443775
 20
246.777839
 30
0.0
 11
531.792741
 21
249.126805
 31
0.0
  0
LINE
  5
4F9
  8
0
 62
     0
 10
525.538545
 20
242.87261
 30
0.0
 11
526.801219
 21
244.135283
 31
0.0
  0
LINE
  5
4FA
  8
0
 62
     0
 10
520.434242
 20
237.945083
 30
0.0
 11
522.235037
 21
239.745878
 31
0.0
  0
LINE
  5
4FB
  8
0
 62
     0
 10
532.610451
 20
250.121292
 30
0.0
 11
534.411246
 21
251.922087
 31
0.0
  0
LINE
  5
4FC
  8
0
 62
     0
 10
523.163632
 20
240.674473
 30
0.0
 11
524.486659
 21
241.9975
 31
0.0
  0
LINE
  5
4FD
  8
0
 62
     0
 10
529.443775
 20
246.954616
 30
0.0
 11
531.681856
 21
249.192697
 31
0.0
  0
LINE
  5
4FE
  8
0
 62
     0
 10
525.443012
 20
242.953852
 30
0.0
 11
526.705685
 21
244.216526
 31
0.0
  0
LINE
  5
4FF
  8
0
 62
     0
 10
520.360734
 20
238.048352
 30
0.0
 11
522.166712
 21
239.854329
 31
0.0
  0
LINE
  5
500
  8
0
 62
     0
 10
532.501999
 20
250.189617
 30
0.0
 11
534.307977
 21
251.995595
 31
0.0
  0
LINE
  5
501
  8
0
 62
     0
 10
523.099704
 20
240.787322
 30
0.0
 11
524.433868
 21
242.121485
 31
0.0
  0
LINE
  5
502
  8
0
 62
     0
 10
529.443775
 20
247.131393
 30
0.0
 11
531.569007
 21
249.256624
 31
0.0
  0
LINE
  5
503
  8
0
 62
     0
 10
525.347478
 20
243.035095
 30
0.0
 11
526.610151
 21
244.297769
 31
0.0
  0
LINE
  5
504
  8
0
 62
     0
 10
520.288381
 20
238.152775
 30
0.0
 11
522.099983
 21
239.964377
 31
0.0
  0
LINE
  5
505
  8
0
 62
     0
 10
532.391952
 20
250.256346
 30
0.0
 11
534.203554
 21
252.067948
 31
0.0
  0
LINE
  5
506
  8
0
 62
     0
 10
523.037775
 20
240.902169
 30
0.0
 11
524.384247
 21
242.248641
 31
0.0
  0
LINE
  5
507
  8
0
 62
     0
 10
529.443775
 20
247.308169
 30
0.0
 11
531.45416
 21
249.318554
 31
0.0
  0
LINE
  5
508
  8
0
 62
     0
 10
525.251944
 20
243.116338
 30
0.0
 11
526.514618
 21
244.379012
 31
0.0
  0
LINE
  5
509
  8
0
 62
     0
 10
520.21719
 20
238.258361
 30
0.0
 11
522.03487
 21
240.076041
 31
0.0
  0
LINE
  5
50A
  8
0
 62
     0
 10
532.280287
 20
250.321458
 30
0.0
 11
534.097968
 21
252.139139
 31
0.0
  0
LINE
  5
50B
  8
0
 62
     0
 10
522.977881
 20
241.019052
 30
0.0
 11
524.337928
 21
242.379099
 31
0.0
  0
LINE
  5
50C
  8
0
 62
     0
 10
529.443775
 20
247.484946
 30
0.0
 11
531.337276
 21
249.378447
 31
0.0
  0
LINE
  5
50D
  8
0
 62
     0
 10
525.15641
 20
243.197581
 30
0.0
 11
526.419084
 21
244.460255
 31
0.0
  0
LINE
  5
50E
  8
0
 62
     0
 10
520.147171
 20
238.365118
 30
0.0
 11
521.971396
 21
240.189344
 31
0.0
  0
LINE
  5
50F
  8
0
 62
     0
 10
532.166985
 20
250.384932
 30
0.0
 11
533.99121
 21
252.209158
 31
0.0
  0
LINE
  5
510
  8
0
 62
     0
 10
522.920066
 20
241.138014
 30
0.0
 11
524.295062
 21
242.513009
 31
0.0
  0
LINE
  5
511
  8
0
 62
     0
 10
529.443775
 20
247.661723
 30
0.0
 11
531.218315
 21
249.436263
 31
0.0
  0
LINE
  5
512
  8
0
 62
     0
 10
525.060876
 20
243.278824
 30
0.0
 11
526.32355
 21
244.541498
 31
0.0
  0
LINE
  5
513
  8
0
 62
     0
 10
520.078332
 20
238.473056
 30
0.0
 11
521.909585
 21
240.30431
 31
0.0
  0
LINE
  5
514
  8
0
 62
     0
 10
532.052019
 20
250.446743
 30
0.0
 11
533.883272
 21
252.277997
 31
0.0
  0
LINE
  5
515
  8
0
 62
     0
 10
522.864375
 20
241.2591
 30
0.0
 11
524.222384
 21
242.617109
 31
0.0
  0
LINE
  5
516
  8
0
 62
     0
 10
529.443775
 20
247.8385
 30
0.0
 11
531.097229
 21
249.491953
 31
0.0
  0
LINE
  5
517
  8
0
 62
     0
 10
524.965342
 20
243.360067
 30
0.0
 11
526.228016
 21
244.62274
 31
0.0
  0
LINE
  5
518
  8
0
 62
     0
 10
520.010684
 20
238.582185
 30
0.0
 11
521.849463
 21
240.420964
 31
0.0
  0
LINE
  5
519
  8
0
 62
     0
 10
531.935365
 20
250.506866
 30
0.0
 11
533.774144
 21
252.345645
 31
0.0
  0
LINE
  5
51A
  8
0
 62
     0
 10
522.81086
 20
241.382361
 30
0.0
 11
524.014751
 21
242.586252
 31
0.0
  0
LINE
  5
51B
  8
0
 62
     0
 10
529.443775
 20
248.015276
 30
0.0
 11
530.973968
 21
249.545469
 31
0.0
  0
LINE
  5
51C
  8
0
 62
     0
 10
524.869808
 20
243.441309
 30
0.0
 11
526.132482
 21
244.703983
 31
0.0
  0
LINE
  5
51D
  8
0
 62
     0
 10
519.944237
 20
238.692515
 30
0.0
 11
521.791058
 21
240.539336
 31
0.0
  0
LINE
  5
51E
  8
0
 62
     0
 10
531.816993
 20
250.565271
 30
0.0
 11
533.663814
 21
252.412091
 31
0.0
  0
LINE
  5
51F
  8
0
 62
     0
 10
522.759576
 20
241.507854
 30
0.0
 11
523.773269
 21
242.521547
 31
0.0
  0
LINE
  5
520
  8
0
 62
     0
 10
529.443775
 20
248.192053
 30
0.0
 11
530.848475
 21
249.596753
 31
0.0
  0
LINE
  5
521
  8
0
 62
     0
 10
524.774275
 20
243.522552
 30
0.0
 11
526.036948
 21
244.785226
 31
0.0
  0
LINE
  5
522
  8
0
 62
     0
 10
527.557275
 20
246.305553
 30
0.0
 11
527.663795
 21
246.412073
 31
0.0
  0
LINE
  5
523
  8
0
 62
     0
 10
519.879004
 20
238.804058
 30
0.0
 11
521.734402
 21
240.659456
 31
0.0
  0
LINE
  5
524
  8
0
 62
     0
 10
531.696872
 20
250.621927
 30
0.0
 11
533.552271
 21
252.477325
 31
0.0
  0
LINE
  5
525
  8
0
 62
     0
 10
522.710586
 20
241.635641
 30
0.0
 11
523.531788
 21
242.456842
 31
0.0
  0
LINE
  5
526
  8
0
 62
     0
 10
529.443775
 20
248.36883
 30
0.0
 11
530.720688
 21
249.645742
 31
0.0
  0
LINE
  5
527
  8
0
 62
     0
 10
524.678741
 20
243.603795
 30
0.0
 11
525.941414
 21
244.866469
 31
0.0
  0
LINE
  5
528
  8
0
 62
     0
 10
527.380402
 20
246.305457
 30
0.0
 11
527.663892
 21
246.588946
 31
0.0
  0
LINE
  5
529
  8
0
 62
     0
 10
519.814995
 20
238.916827
 30
0.0
 11
521.679528
 21
240.781359
 31
0.0
  0
LINE
  5
52A
  8
0
 62
     0
 10
531.574969
 20
250.676801
 30
0.0
 11
533.439502
 21
252.541333
 31
0.0
  0
LINE
  5
52B
  8
0
 62
     0
 10
522.663958
 20
241.76579
 30
0.0
 11
523.290306
 21
242.392137
 31
0.0
  0
LINE
  5
52C
  8
0
 62
     0
 10
529.443775
 20
248.545606
 30
0.0
 11
530.590539
 21
249.69237
 31
0.0
  0
LINE
  5
52D
  8
0
 62
     0
 10
524.583207
 20
243.685038
 30
0.0
 11
525.845881
 21
244.947712
 31
0.0
  0
LINE
  5
52E
  8
0
 62
     0
 10
527.203625
 20
246.305457
 30
0.0
 11
527.663892
 21
246.765723
 31
0.0
  0
LINE
  5
52F
  8
0
 62
     0
 10
519.752226
 20
239.030834
 30
0.0
 11
521.626473
 21
240.905081
 31
0.0
  0
LINE
  5
530
  8
0
 62
     0
 10
531.451248
 20
250.729856
 30
0.0
 11
533.325495
 21
252.604103
 31
0.0
  0
LINE
  5
531
  8
0
 62
     0
 10
522.619768
 20
241.898376
 30
0.0
 11
523.048825
 21
242.327433
 31
0.0
  0
LINE
  5
532
  8
0
 62
     0
 10
529.443775
 20
248.722383
 30
0.0
 11
530.457952
 21
249.73656
 31
0.0
  0
LINE
  5
533
  8
0
 62
     0
 10
524.487673
 20
243.766281
 30
0.0
 11
525.750347
 21
245.028955
 31
0.0
  0
LINE
  5
534
  8
0
 62
     0
 10
527.026849
 20
246.305457
 30
0.0
 11
527.663892
 21
246.942499
 31
0.0
  0
LINE
  5
535
  8
0
 62
     0
 10
519.690709
 20
239.146094
 30
0.0
 11
521.575276
 21
241.03066
 31
0.0
  0
LINE
  5
536
  8
0
 62
     0
 10
531.325668
 20
250.781053
 30
0.0
 11
533.210235
 21
252.665619
 31
0.0
  0
LINE
  5
537
  8
0
 62
     0
 10
522.582564
 20
242.037948
 30
0.0
 11
522.807343
 21
242.262728
 31
0.0
  0
LINE
  5
538
  8
0
 62
     0
 10
529.443775
 20
248.89916
 30
0.0
 11
530.322845
 21
249.778229
 31
0.0
  0
LINE
  5
539
  8
0
 62
     0
 10
524.392139
 20
243.847524
 30
0.0
 11
525.654813
 21
245.110197
 31
0.0
  0
LINE
  5
53A
  8
0
 62
     0
 10
526.850072
 20
246.305457
 30
0.0
 11
527.663892
 21
247.119276
 31
0.0
  0
LINE
  5
53B
  8
0
 62
     0
 10
519.63046
 20
239.262621
 30
0.0
 11
521.52598
 21
241.158141
 31
0.0
  0
LINE
  5
53C
  8
0
 62
     0
 10
531.198188
 20
250.830349
 30
0.0
 11
533.093707
 21
252.725869
 31
0.0
  0
LINE
  5
53D
  8
0
 62
     0
 10
524.296605
 20
243.928766
 30
0.0
 11
525.559279
 21
245.19144
 31
0.0
  0
LINE
  5
53E
  8
0
 62
     0
 10
529.443775
 20
249.075936
 30
0.0
 11
530.185123
 21
249.817285
 31
0.0
  0
LINE
  5
53F
  8
0
 62
     0
 10
526.673295
 20
246.305457
 30
0.0
 11
527.663892
 21
247.296053
 31
0.0
  0
LINE
  5
540
  8
0
 62
     0
 10
519.571495
 20
239.380433
 30
0.0
 11
521.478631
 21
241.287569
 31
0.0
  0
LINE
  5
541
  8
0
 62
     0
 10
531.068759
 20
250.877697
 30
0.0
 11
532.975896
 21
252.784834
 31
0.0
  0
LINE
  5
542
  8
0
 62
     0
 10
524.201071
 20
244.010009
 30
0.0
 11
525.463745
 21
245.272683
 31
0.0
  0
LINE
  5
543
  8
0
 62
     0
 10
529.443775
 20
249.252713
 30
0.0
 11
530.044686
 21
249.853624
 31
0.0
  0
LINE
  5
544
  8
0
 62
     0
 10
526.496519
 20
246.305457
 30
0.0
 11
527.663892
 21
247.472829
 31
0.0
  0
LINE
  5
545
  8
0
 62
     0
 10
519.51383
 20
239.499545
 30
0.0
 11
521.433281
 21
241.418996
 31
0.0
  0
LINE
  5
546
  8
0
 62
     0
 10
530.937333
 20
250.923048
 30
0.0
 11
532.856784
 21
252.842499
 31
0.0
  0
LINE
  5
547
  8
0
 62
     0
 10
524.105537
 20
244.091252
 30
0.0
 11
525.368211
 21
245.353926
 31
0.0
  0
LINE
  5
548
  8
0
 62
     0
 10
529.443775
 20
249.42949
 30
0.0
 11
529.901418
 21
249.887133
 31
0.0
  0
LINE
  5
549
  8
0
 62
     0
 10
526.319742
 20
246.305457
 30
0.0
 11
527.663892
 21
247.649606
 31
0.0
  0
LINE
  5
54A
  8
0
 62
     0
 10
519.457484
 20
239.619975
 30
0.0
 11
521.389983
 21
241.552475
 31
0.0
  0
LINE
  5
54B
  8
0
 62
     0
 10
530.803854
 20
250.966345
 30
0.0
 11
532.736353
 21
252.898845
 31
0.0
  0
LINE
  5
54C
  8
0
 62
     0
 10
524.010004
 20
244.172495
 30
0.0
 11
525.272677
 21
245.435169
 31
0.0
  0
LINE
  5
54D
  8
0
 62
     0
 10
529.443775
 20
249.606266
 30
0.0
 11
529.755193
 21
249.917684
 31
0.0
  0
LINE
  5
54E
  8
0
 62
     0
 10
526.142965
 20
246.305457
 30
0.0
 11
527.663892
 21
247.826383
 31
0.0
  0
LINE
  5
54F
  8
0
 62
     0
 10
519.402476
 20
239.741744
 30
0.0
 11
521.348798
 21
241.688066
 31
0.0
  0
LINE
  5
550
  8
0
 62
     0
 10
530.668262
 20
251.00753
 30
0.0
 11
532.614585
 21
252.953853
 31
0.0
  0
LINE
  5
551
  8
0
 62
     0
 10
523.91447
 20
244.253738
 30
0.0
 11
525.177143
 21
245.516411
 31
0.0
  0
LINE
  5
552
  8
0
 62
     0
 10
529.451676
 20
249.790944
 30
0.0
 11
529.588116
 21
249.927384
 31
0.0
  0
LINE
  5
553
  8
0
 62
     0
 10
525.969266
 20
246.308534
 30
0.0
 11
527.663892
 21
248.00316
 31
0.0
  0
LINE
  5
554
  8
0
 62
     0
 10
519.348826
 20
239.864871
 30
0.0
 11
521.309791
 21
241.825835
 31
0.0
  0
LINE
  5
555
  8
0
 62
     0
 10
530.530493
 20
251.046538
 30
0.0
 11
532.491458
 21
253.007503
 31
0.0
  0
LINE
  5
556
  8
0
 62
     0
 10
523.818936
 20
244.334981
 30
0.0
 11
525.08161
 21
245.597654
 31
0.0
  0
LINE
  5
557
  8
0
 62
     0
 10
525.885101
 20
246.401145
 30
0.0
 11
527.663892
 21
248.179936
 31
0.0
  0
LINE
  5
558
  8
0
 62
     0
 10
519.296556
 20
239.989378
 30
0.0
 11
521.273031
 21
241.965853
 31
0.0
  0
LINE
  5
559
  8
0
 62
     0
 10
530.390476
 20
251.083298
 30
0.0
 11
532.366951
 21
253.059772
 31
0.0
  0
LINE
  5
55A
  8
0
 62
     0
 10
523.723402
 20
244.416223
 30
0.0
 11
524.986076
 21
245.678897
 31
0.0
  0
LINE
  5
55B
  8
0
 62
     0
 10
525.884008
 20
246.576829
 30
0.0
 11
527.663892
 21
248.356713
 31
0.0
  0
LINE
  5
55C
  8
0
 62
     0
 10
519.245689
 20
240.115287
 30
0.0
 11
521.238597
 21
242.108195
 31
0.0
  0
LINE
  5
55D
  8
0
 62
     0
 10
530.248134
 20
251.117732
 30
0.0
 11
532.241041
 21
253.110639
 31
0.0
  0
LINE
  5
55E
  8
0
 62
     0
 10
523.627868
 20
244.497466
 30
0.0
 11
524.890542
 21
245.76014
 31
0.0
  0
LINE
  5
55F
  8
0
 62
     0
 10
525.884008
 20
246.753606
 30
0.0
 11
527.663892
 21
248.53349
 31
0.0
  0
LINE
  5
560
  8
0
 62
     0
 10
519.19625
 20
240.242625
 30
0.0
 11
521.206573
 21
242.252947
 31
0.0
  0
LINE
  5
561
  8
0
 62
     0
 10
530.103381
 20
251.149756
 30
0.0
 11
532.113704
 21
253.160079
 31
0.0
  0
LINE
  5
562
  8
0
 62
     0
 10
523.532334
 20
244.578709
 30
0.0
 11
524.795008
 21
245.841383
 31
0.0
  0
LINE
  5
563
  8
0
 62
     0
 10
525.884008
 20
246.930383
 30
0.0
 11
527.663892
 21
248.710266
 31
0.0
  0
LINE
  5
564
  8
0
 62
     0
 10
519.148264
 20
240.371415
 30
0.0
 11
521.177051
 21
242.400203
 31
0.0
  0
LINE
  5
565
  8
0
 62
     0
 10
529.956126
 20
251.179277
 30
0.0
 11
531.984913
 21
253.208065
 31
0.0
  0
LINE
  5
566
  8
0
 62
     0
 10
523.4368
 20
244.659952
 30
0.0
 11
524.704648
 21
245.927799
 31
0.0
  0
LINE
  5
567
  8
0
 62
     0
 10
525.884008
 20
247.107159
 30
0.0
 11
527.663892
 21
248.887043
 31
0.0
  0
LINE
  5
568
  8
0
 62
     0
 10
519.101759
 20
240.501687
 30
0.0
 11
521.150135
 21
242.550063
 31
0.0
  0
LINE
  5
569
  8
0
 62
     0
 10
529.806266
 20
251.206194
 30
0.0
 11
531.854641
 21
253.25457
 31
0.0
  0
LINE
  5
56A
  8
0
 62
     0
 10
523.341267
 20
244.741195
 30
0.0
 11
524.814547
 21
246.214475
 31
0.0
  0
LINE
  5
56B
  8
0
 62
     0
 10
525.828625
 20
247.228553
 30
0.0
 11
527.663892
 21
249.06382
 31
0.0
  0
LINE
  5
56C
  8
0
 62
     0
 10
519.056764
 20
240.633469
 30
0.0
 11
521.125936
 21
242.702641
 31
0.0
  0
LINE
  5
56D
  8
0
 62
     0
 10
529.653688
 20
251.230393
 30
0.0
 11
531.722859
 21
253.299564
 31
0.0
  0
LINE
  5
56E
  8
0
 62
     0
 10
523.245733
 20
244.822438
 30
0.0
 11
527.663892
 21
249.240596
 31
0.0
  0
LINE
  5
56F
  8
0
 62
     0
 10
519.013311
 20
240.766793
 30
0.0
 11
521.10458
 21
242.858061
 31
0.0
  0
LINE
  5
570
  8
0
 62
     0
 10
529.498267
 20
251.251749
 30
0.0
 11
531.589536
 21
253.343017
 31
0.0
  0
LINE
  5
571
  8
0
 62
     0
 10
523.150199
 20
244.90368
 30
0.0
 11
527.663892
 21
249.417373
 31
0.0
  0
LINE
  5
572
  8
0
 62
     0
 10
518.971434
 20
240.901692
 30
0.0
 11
521.086204
 21
243.016462
 31
0.0
  0
LINE
  5
573
  8
0
 62
     0
 10
529.339866
 20
251.270125
 30
0.0
 11
531.454637
 21
253.384895
 31
0.0
  0
LINE
  5
574
  8
0
 62
     0
 10
523.054665
 20
244.984923
 30
0.0
 11
527.663892
 21
249.59415
 31
0.0
  0
LINE
  5
575
  8
0
 62
     0
 10
518.931166
 20
241.038201
 30
0.0
 11
521.070963
 21
243.177998
 31
0.0
  0
LINE
  5
576
  8
0
 62
     0
 10
529.17833
 20
251.285365
 30
0.0
 11
531.318127
 21
253.425162
 31
0.0
  0
LINE
  5
577
  8
0
 62
     0
 10
522.959131
 20
245.066166
 30
0.0
 11
527.661165
 21
249.7682
 31
0.0
  0
LINE
  5
578
  8
0
 62
     0
 10
518.892547
 20
241.176359
 30
0.0
 11
521.059031
 21
243.342843
 31
0.0
  0
LINE
  5
579
  8
0
 62
     0
 10
529.013486
 20
251.297297
 30
0.0
 11
531.17997
 21
253.463782
 31
0.0
  0
LINE
  5
57A
  8
0
 62
     0
 10
522.863597
 20
245.147409
 30
0.0
 11
527.598967
 21
249.882779
 31
0.0
  0
LINE
  5
57B
  8
0
 62
     0
 10
518.855617
 20
241.316205
 30
0.0
 11
521.050602
 21
243.51119
 31
0.0
  0
LINE
  5
57C
  8
0
 62
     0
 10
528.845138
 20
251.305727
 30
0.0
 11
531.040124
 21
253.500712
 31
0.0
  0
LINE
  5
57D
  8
0
 62
     0
 10
522.768063
 20
245.228652
 30
0.0
 11
527.474419
 21
249.935008
 31
0.0
  0
LINE
  5
57E
  8
0
 62
     0
 10
518.820418
 20
241.457783
 30
0.0
 11
521.045896
 21
243.683261
 31
0.0
  0
LINE
  5
57F
  8
0
 62
     0
 10
528.673067
 20
251.310432
 30
0.0
 11
530.898545
 21
253.53591
 31
0.0
  0
LINE
  5
580
  8
0
 62
     0
 10
522.672529
 20
245.309895
 30
0.0
 11
527.261807
 21
249.899172
 31
0.0
  0
LINE
  5
581
  8
0
 62
     0
 10
518.786998
 20
241.601139
 30
0.0
 11
521.045164
 21
243.859306
 31
0.0
  0
LINE
  5
582
  8
0
 62
     0
 10
528.497023
 20
251.311164
 30
0.0
 11
530.755189
 21
253.569331
 31
0.0
  0
LINE
  5
583
  8
0
 62
     0
 10
522.587124
 20
245.401265
 30
0.0
 11
527.031686
 21
249.845827
 31
0.0
  0
LINE
  5
584
  8
0
 62
     0
 10
518.755405
 20
241.746323
 30
0.0
 11
521.048694
 21
244.039613
 31
0.0
  0
LINE
  5
585
  8
0
 62
     0
 10
528.316716
 20
251.307634
 30
0.0
 11
530.610005
 21
253.600924
 31
0.0
  0
LINE
  5
586
  8
0
 62
     0
 10
522.577054
 20
245.567973
 30
0.0
 11
526.788356
 21
249.779274
 31
0.0
  0
LINE
  5
587
  8
0
 62
     0
 10
518.725692
 20
241.893388
 30
0.0
 11
521.056818
 21
244.224513
 31
0.0
  0
LINE
  5
588
  8
0
 62
     0
 10
528.131815
 20
251.299511
 30
0.0
 11
530.462941
 21
253.630636
 31
0.0
  0
LINE
  5
589
  8
0
 62
     0
 10
522.659988
 20
245.827683
 30
0.0
 11
526.528645
 21
249.69634
 31
0.0
  0
LINE
  5
58A
  8
0
 62
     0
 10
518.697918
 20
242.04239
 30
0.0
 11
521.069923
 21
244.414395
 31
0.0
  0
LINE
  5
58B
  8
0
 62
     0
 10
527.941934
 20
251.286406
 30
0.0
 11
530.313939
 21
253.658411
 31
0.0
  0
LINE
  5
58C
  8
0
 62
     0
 10
522.764129
 20
246.108601
 30
0.0
 11
526.247727
 21
249.592199
 31
0.0
  0
LINE
  5
58D
  8
0
 62
     0
 10
518.672142
 20
242.19339
 30
0.0
 11
521.088464
 21
244.609713
 31
0.0
  0
LINE
  5
58E
  8
0
 62
     0
 10
527.746616
 20
251.267865
 30
0.0
 11
530.162938
 21
253.684187
 31
0.0
  0
LINE
  5
58F
  8
0
 62
     0
 10
522.897515
 20
246.418764
 30
0.0
 11
525.937565
 21
249.458814
 31
0.0
  0
LINE
  5
590
  8
0
 62
     0
 10
518.648431
 20
242.346456
 30
0.0
 11
521.112984
 21
244.811009
 31
0.0
  0
LINE
  5
591
  8
0
 62
     0
 10
527.545319
 20
251.243345
 30
0.0
 11
530.009872
 21
253.707898
 31
0.0
  0
LINE
  5
592
  8
0
 62
     0
 10
523.075571
 20
246.773597
 30
0.0
 11
525.582732
 21
249.280757
 31
0.0
  0
LINE
  5
593
  8
0
 62
     0
 10
518.626857
 20
242.501658
 30
0.0
 11
521.144137
 21
245.018939
 31
0.0
  0
LINE
  5
594
  8
0
 62
     0
 10
527.33739
 20
251.212192
 30
0.0
 11
529.85467
 21
253.729472
 31
0.0
  0
LINE
  5
595
  8
0
 62
     0
 10
523.336979
 20
247.211781
 30
0.0
 11
525.144547
 21
249.019349
 31
0.0
  0
LINE
  5
596
  8
0
 62
     0
 10
518.607496
 20
242.659074
 30
0.0
 11
521.182723
 21
245.234302
 31
0.0
  0
LINE
  5
597
  8
0
 62
     0
 10
527.122027
 20
251.173606
 30
0.0
 11
529.697254
 21
253.748833
 31
0.0
  0
LINE
  5
598
  8
0
 62
     0
 10
523.936591
 20
247.988169
 30
0.0
 11
524.368159
 21
248.419738
 31
0.0
  0
LINE
  5
599
  8
0
 62
     0
 10
518.590432
 20
242.818787
 30
0.0
 11
521.229741
 21
245.458097
 31
0.0
  0
LINE
  5
59A
  8
0
 62
     0
 10
526.898232
 20
251.126587
 30
0.0
 11
529.537541
 21
253.765897
 31
0.0
  0
LINE
  5
59B
  8
0
 62
     0
 10
518.575757
 20
242.980889
 30
0.0
 11
521.286466
 21
245.691598
 31
0.0
  0
LINE
  5
59C
  8
0
 62
     0
 10
526.664731
 20
251.069863
 30
0.0
 11
529.37544
 21
253.780572
 31
0.0
  0
LINE
  5
59D
  8
0
 62
     0
 10
518.563569
 20
243.145478
 30
0.0
 11
521.354564
 21
245.936473
 31
0.0
  0
LINE
  5
59E
  8
0
 62
     0
 10
526.419856
 20
251.001765
 30
0.0
 11
529.21085
 21
253.792759
 31
0.0
  0
LINE
  5
59F
  8
0
 62
     0
 10
518.553978
 20
243.312663
 30
0.0
 11
521.436295
 21
246.19498
 31
0.0
  0
LINE
  5
5A0
  8
0
 62
     0
 10
526.161348
 20
250.920034
 30
0.0
 11
529.043665
 21
253.802351
 31
0.0
  0
LINE
  5
5A1
  8
0
 62
     0
 10
518.547101
 20
243.482563
 30
0.0
 11
521.534854
 21
246.470316
 31
0.0
  0
LINE
  5
5A2
  8
0
 62
     0
 10
525.886012
 20
250.821475
 30
0.0
 11
528.873765
 21
253.809227
 31
0.0
  0
LINE
  5
5A3
  8
0
 62
     0
 10
518.54307
 20
243.655309
 30
0.0
 11
521.655034
 21
246.767273
 31
0.0
  0
LINE
  5
5A4
  8
0
 62
     0
 10
525.589056
 20
250.701295
 30
0.0
 11
528.70102
 21
253.813259
 31
0.0
  0
LINE
  5
5A5
  8
0
 62
     0
 10
518.542029
 20
243.831044
 30
0.0
 11
521.804641
 21
247.093657
 31
0.0
  0
LINE
  5
5A6
  8
0
 62
     0
 10
525.262672
 20
250.551687
 30
0.0
 11
528.525284
 21
253.8143
 31
0.0
  0
LINE
  5
5A7
  8
0
 62
     0
 10
518.544137
 20
244.009929
 30
0.0
 11
521.998122
 21
247.463914
 31
0.0
  0
LINE
  5
5A8
  8
0
 62
     0
 10
524.892414
 20
250.358206
 30
0.0
 11
528.346399
 21
253.812191
 31
0.0
  0
LINE
  5
5A9
  8
0
 62
     0
 10
518.549573
 20
244.192142
 30
0.0
 11
522.269064
 21
247.911633
 31
0.0
  0
LINE
  5
5AA
  8
0
 62
     0
 10
524.444696
 20
250.087265
 30
0.0
 11
528.164187
 21
253.806755
 31
0.0
  0
LINE
  5
5AB
  8
0
 62
     0
 10
518.558536
 20
244.377881
 30
0.0
 11
522.761707
 21
248.581052
 31
0.0
  0
LINE
  5
5AC
  8
0
 62
     0
 10
523.775276
 20
249.594622
 30
0.0
 11
527.978447
 21
253.797793
 31
0.0
  0
LINE
  5
5AD
  8
0
 62
     0
 10
518.571248
 20
244.56737
 30
0.0
 11
527.788958
 21
253.785081
 31
0.0
  0
LINE
  5
5AE
  8
0
 62
     0
 10
518.587963
 20
244.760862
 30
0.0
 11
527.595467
 21
253.768366
 31
0.0
  0
LINE
  5
5AF
  8
0
 62
     0
 10
518.608967
 20
244.958643
 30
0.0
 11
527.397686
 21
253.747362
 31
0.0
  0
LINE
  5
5B0
  8
0
 62
     0
 10
518.63459
 20
245.161042
 30
0.0
 11
527.195287
 21
253.721739
 31
0.0
  0
LINE
  5
5B1
  8
0
 62
     0
 10
518.66521
 20
245.368439
 30
0.0
 11
526.987889
 21
253.691118
 31
0.0
  0
LINE
  5
5B2
  8
0
 62
     0
 10
518.701271
 20
245.581277
 30
0.0
 11
526.775052
 21
253.655057
 31
0.0
  0
LINE
  5
5B3
  8
0
 62
     0
 10
518.743292
 20
245.800074
 30
0.0
 11
526.556254
 21
253.613037
 31
0.0
  0
LINE
  5
5B4
  8
0
 62
     0
 10
518.791891
 20
246.02545
 30
0.0
 11
526.330878
 21
253.564438
 31
0.0
  0
LINE
  5
5B5
  8
0
 62
     0
 10
518.847814
 20
246.25815
 30
0.0
 11
526.098178
 21
253.508514
 31
0.0
  0
LINE
  5
5B6
  8
0
 62
     0
 10
518.911975
 20
246.499087
 30
0.0
 11
525.857241
 21
253.444354
 31
0.0
  0
LINE
  5
5B7
  8
0
 62
     0
 10
518.985511
 20
246.7494
 30
0.0
 11
525.606929
 21
253.370818
 31
0.0
  0
LINE
  5
5B8
  8
0
 62
     0
 10
519.069873
 20
247.010539
 30
0.0
 11
525.345789
 21
253.286455
 31
0.0
  0
LINE
  5
5B9
  8
0
 62
     0
 10
519.166962
 20
247.284405
 30
0.0
 11
525.071924
 21
253.189367
 31
0.0
  0
LINE
  5
5BA
  8
0
 62
     0
 10
519.27935
 20
247.573569
 30
0.0
 11
524.78276
 21
253.076979
 31
0.0
  0
LINE
  5
5BB
  8
0
 62
     0
 10
519.410672
 20
247.881668
 30
0.0
 11
524.47466
 21
252.945656
 31
0.0
  0
LINE
  5
5BC
  8
0
 62
     0
 10
519.566379
 20
248.214152
 30
0.0
 11
524.142177
 21
252.789949
 31
0.0
  0
LINE
  5
5BD
  8
0
 62
     0
 10
519.755332
 20
248.579881
 30
0.0
 11
523.776447
 21
252.600997
 31
0.0
  0
LINE
  5
5BE
  8
0
 62
     0
 10
519.99388
 20
248.995206
 30
0.0
 11
523.361122
 21
252.362448
 31
0.0
  0
LINE
  5
5BF
  8
0
 62
     0
 10
520.319786
 20
249.497888
 30
0.0
 11
522.85844
 21
252.036543
 31
0.0
  0
LINE
  5
5C0
  8
0
 62
     0
 10
520.89066
 20
250.245539
 30
0.0
 11
522.110789
 21
251.465669
 31
0.0
  0
LINE
  5
5C1
  8
0
 62
     0
 10
521.949244
 20
236.278105
 30
0.0
 11
523.724106
 21
238.052967
 31
0.0
  0
LINE
  5
5C2
  8
0
 62
     0
 10
534.349438
 20
248.678298
 30
0.0
 11
536.078224
 21
250.407084
 31
0.0
  0
LINE
  5
5C3
  8
0
 62
     0
 10
524.631053
 20
238.959914
 30
0.0
 11
527.663892
 21
241.992752
 31
0.0
  0
LINE
  5
5C4
  8
0
 62
     0
 10
532.126361
 20
246.455221
 30
0.0
 11
533.396415
 21
247.725275
 31
0.0
  0
LINE
  5
5C5
  8
0
 62
     0
 10
529.443775
 20
243.772636
 30
0.0
 11
531.223659
 21
245.552519
 31
0.0
  0
LINE
  5
5C6
  8
0
 62
     0
 10
522.043943
 20
236.196026
 30
0.0
 11
523.820925
 21
237.973009
 31
0.0
  0
LINE
  5
5C7
  8
0
 62
     0
 10
535.369096
 20
249.521179
 30
0.0
 11
536.159585
 21
250.311669
 31
0.0
  0
LINE
  5
5C8
  8
0
 62
     0
 10
524.72962
 20
238.881704
 30
0.0
 11
527.663892
 21
241.815975
 31
0.0
  0
LINE
  5
5C9
  8
0
 62
     0
 10
532.200402
 20
246.352485
 30
0.0
 11
533.474625
 21
247.626709
 31
0.0
  0
LINE
  5
5CA
  8
0
 62
     0
 10
529.443775
 20
243.595859
 30
0.0
 11
531.223659
 21
245.375742
 31
0.0
  0
LINE
  5
5CB
  8
0
 62
     0
 10
522.139754
 20
236.115062
 30
0.0
 11
523.919239
 21
237.894546
 31
0.0
  0
LINE
  5
5CC
  8
0
 62
     0
 10
532.271841
 20
246.247148
 30
0.0
 11
533.55102
 21
247.526327
 31
0.0
  0
LINE
  5
5CD
  8
0
 62
     0
 10
524.830002
 20
238.805309
 30
0.0
 11
527.663892
 21
241.639199
 31
0.0
  0
LINE
  5
5CE
  8
0
 62
     0
 10
529.443775
 20
243.419082
 30
0.0
 11
531.223659
 21
245.198966
 31
0.0
  0
LINE
  5
5CF
  8
0
 62
     0
 10
522.236683
 20
236.035214
 30
0.0
 11
524.019056
 21
237.817586
 31
0.0
  0
LINE
  5
5D0
  8
0
 62
     0
 10
532.340636
 20
246.139167
 30
0.0
 11
533.625585
 21
247.424115
 31
0.0
  0
LINE
  5
5D1
  8
0
 62
     0
 10
524.932213
 20
238.730744
 30
0.0
 11
527.663892
 21
241.462422
 31
0.0
  0
LINE
  5
5D2
  8
0
 62
     0
 10
529.443775
 20
243.242305
 30
0.0
 11
531.223659
 21
245.022189
 31
0.0
  0
LINE
  5
5D3
  8
0
 62
     0
 10
522.334734
 20
235.956487
 30
0.0
 11
524.120387
 21
237.742141
 31
0.0
  0
LINE
  5
5D4
  8
0
 62
     0
 10
532.406736
 20
246.02849
 30
0.0
 11
533.698302
 21
247.320056
 31
0.0
  0
LINE
  5
5D5
  8
0
 62
     0
 10
525.036273
 20
238.658026
 30
0.0
 11
527.663892
 21
241.285645
 31
0.0
  0
LINE
  5
5D6
  8
0
 62
     0
 10
529.443775
 20
243.065529
 30
0.0
 11
531.223659
 21
244.845412
 31
0.0
  0
LINE
  5
5D7
  8
0
 62
     0
 10
522.433909
 20
235.878886
 30
0.0
 11
524.223243
 21
237.66822
 31
0.0
  0
LINE
  5
5D8
  8
0
 62
     0
 10
532.47008
 20
245.915057
 30
0.0
 11
533.769152
 21
247.214129
 31
0.0
  0
LINE
  5
5D9
  8
0
 62
     0
 10
525.142199
 20
238.587176
 30
0.0
 11
527.663892
 21
241.108868
 31
0.0
  0
LINE
  5
5DA
  8
0
 62
     0
 10
529.443775
 20
242.888752
 30
0.0
 11
531.269047
 21
244.714024
 31
0.0
  0
LINE
  5
5DB
  8
0
 62
     0
 10
522.534216
 20
235.802417
 30
0.0
 11
524.327637
 21
237.595837
 31
0.0
  0
LINE
  5
5DC
  8
0
 62
     0
 10
532.5306
 20
245.798801
 30
0.0
 11
533.838111
 21
247.106312
 31
0.0
  0
LINE
  5
5DD
  8
0
 62
     0
 10
525.250017
 20
238.518217
 30
0.0
 11
527.663892
 21
240.932092
 31
0.0
  0
LINE
  5
5DE
  8
0
 62
     0
 10
529.443775
 20
242.711975
 30
0.0
 11
531.424237
 21
244.692437
 31
0.0
  0
LINE
  5
5DF
  8
0
 62
     0
 10
522.63566
 20
235.727084
 30
0.0
 11
524.433583
 21
237.525006
 31
0.0
  0
LINE
  5
5E0
  8
0
 62
     0
 10
532.588216
 20
245.679639
 30
0.0
 11
533.905154
 21
246.996578
 31
0.0
  0
LINE
  5
5E1
  8
0
 62
     0
 10
525.359751
 20
238.451174
 30
0.0
 11
527.663892
 21
240.755315
 31
0.0
  0
LINE
  5
5E2
  8
0
 62
     0
 10
529.443775
 20
242.535199
 30
0.0
 11
531.601014
 21
244.692437
 31
0.0
  0
LINE
  5
5E3
  8
0
 62
     0
 10
522.738247
 20
235.652894
 30
0.0
 11
524.541095
 21
237.455742
 31
0.0
  0
LINE
  5
5E4
  8
0
 62
     0
 10
532.642835
 20
245.557482
 30
0.0
 11
533.970252
 21
246.884898
 31
0.0
  0
LINE
  5
5E5
  8
0
 62
     0
 10
525.47143
 20
238.386077
 30
0.0
 11
527.663892
 21
240.578538
 31
0.0
  0
LINE
  5
5E6
  8
0
 62
     0
 10
529.443775
 20
242.358422
 30
0.0
 11
531.77779
 21
244.692437
 31
0.0
  0
LINE
  5
5E7
  8
0
 62
     0
 10
522.841984
 20
235.579854
 30
0.0
 11
524.650193
 21
237.388064
 31
0.0
  0
LINE
  5
5E8
  8
0
 62
     0
 10
532.694352
 20
245.432223
 30
0.0
 11
534.033372
 21
246.771242
 31
0.0
  0
LINE
  5
5E9
  8
0
 62
     0
 10
525.585087
 20
238.322957
 30
0.0
 11
527.663892
 21
240.401762
 31
0.0
  0
LINE
  5
5EA
  8
0
 62
     0
 10
529.443775
 20
242.181645
 30
0.0
 11
531.954567
 21
244.692437
 31
0.0
  0
LINE
  5
5EB
  8
0
 62
     0
 10
522.946879
 20
235.507972
 30
0.0
 11
524.760896
 21
237.321989
 31
0.0
  0
LINE
  5
5EC
  8
0
 62
     0
 10
532.742648
 20
245.303742
 30
0.0
 11
534.094479
 21
246.655572
 31
0.0
  0
LINE
  5
5ED
  8
0
 62
     0
 10
525.700757
 20
238.26185
 30
0.0
 11
527.663892
 21
240.224985
 31
0.0
  0
LINE
  5
5EE
  8
0
 62
     0
 10
529.443775
 20
242.004869
 30
0.0
 11
532.131344
 21
244.692437
 31
0.0
  0
LINE
  5
5EF
  8
0
 62
     0
 10
523.05294
 20
235.437257
 30
0.0
 11
524.873223
 21
237.25754
 31
0.0
  0
LINE
  5
5F0
  8
0
 62
     0
 10
532.787583
 20
245.1719
 30
0.0
 11
534.153533
 21
246.53785
 31
0.0
  0
LINE
  5
5F1
  8
0
 62
     0
 10
525.818479
 20
238.202796
 30
0.0
 11
527.663892
 21
240.048208
 31
0.0
  0
LINE
  5
5F2
  8
0
 62
     0
 10
529.443775
 20
241.828092
 30
0.0
 11
532.30812
 21
244.692437
 31
0.0
  0
LINE
  5
5F3
  8
0
 62
     0
 10
523.160176
 20
235.367716
 30
0.0
 11
524.987198
 21
237.194738
 31
0.0
  0
LINE
  5
5F4
  8
0
 62
     0
 10
532.828999
 20
245.036539
 30
0.0
 11
534.210491
 21
246.418031
 31
0.0
  0
LINE
  5
5F5
  8
0
 62
     0
 10
525.938298
 20
238.145838
 30
0.0
 11
527.663892
 21
239.871432
 31
0.0
  0
LINE
  5
5F6
  8
0
 62
     0
 10
529.443775
 20
241.651315
 30
0.0
 11
532.484897
 21
244.692437
 31
0.0
  0
LINE
  5
5F7
  8
0
 62
     0
 10
523.268596
 20
235.29936
 30
0.0
 11
525.102847
 21
237.13361
 31
0.0
  0
LINE
  5
5F8
  8
0
 62
     0
 10
532.866713
 20
244.897476
 30
0.0
 11
534.265304
 21
246.296067
 31
0.0
  0
LINE
  5
5F9
  8
0
 62
     0
 10
526.060261
 20
238.091025
 30
0.0
 11
527.663892
 21
239.694655
 31
0.0
  0
LINE
  5
5FA
  8
0
 62
     0
 10
529.443775
 20
241.474539
 30
0.0
 11
532.661674
 21
244.692437
 31
0.0
  0
LINE
  5
5FB
  8
0
 62
     0
 10
523.378212
 20
235.232198
 30
0.0
 11
525.220196
 21
237.074182
 31
0.0
  0
LINE
  5
5FC
  8
0
 62
     0
 10
529.443775
 20
241.297762
 30
0.0
 11
534.317919
 21
246.171906
 31
0.0
  0
LINE
  5
5FD
  8
0
 62
     0
 10
526.184422
 20
238.038409
 30
0.0
 11
527.663892
 21
239.517878
 31
0.0
  0
LINE
  5
5FE
  8
0
 62
     0
 10
523.489033
 20
235.166243
 30
0.0
 11
525.339274
 21
237.016484
 31
0.0
  0
LINE
  5
5FF
  8
0
 62
     0
 10
529.443775
 20
241.120985
 30
0.0
 11
534.368279
 21
246.045489
 31
0.0
  0
LINE
  5
600
  8
0
 62
     0
 10
526.31084
 20
237.98805
 30
0.0
 11
527.663892
 21
239.341102
 31
0.0
  0
LINE
  5
601
  8
0
 62
     0
 10
523.601073
 20
235.101506
 30
0.0
 11
525.460115
 21
236.960548
 31
0.0
  0
LINE
  5
602
  8
0
 62
     0
 10
531.41212
 20
242.912553
 30
0.0
 11
534.416317
 21
245.916751
 31
0.0
  0
LINE
  5
603
  8
0
 62
     0
 10
526.439578
 20
237.940011
 30
0.0
 11
527.663892
 21
239.164325
 31
0.0
  0
LINE
  5
604
  8
0
 62
     0
 10
529.443775
 20
240.944208
 30
0.0
 11
531.223659
 21
242.724092
 31
0.0
  0
LINE
  5
605
  8
0
 62
     0
 10
523.714343
 20
235.038
 30
0.0
 11
525.582752
 21
236.906408
 31
0.0
  0
LINE
  5
606
  8
0
 62
     0
 10
531.588897
 20
242.912553
 30
0.0
 11
534.461964
 21
245.785621
 31
0.0
  0
LINE
  5
607
  8
0
 62
     0
 10
526.570708
 20
237.894364
 30
0.0
 11
527.663892
 21
238.987548
 31
0.0
  0
LINE
  5
608
  8
0
 62
     0
 10
529.443775
 20
240.767432
 30
0.0
 11
531.223659
 21
242.547315
 31
0.0
  0
LINE
  5
609
  8
0
 62
     0
 10
523.828858
 20
234.975738
 30
0.0
 11
525.707223
 21
236.854103
 31
0.0
  0
LINE
  5
60A
  8
0
 62
     0
 10
531.765674
 20
242.912553
 30
0.0
 11
534.50514
 21
245.65202
 31
0.0
  0
LINE
  5
60B
  8
0
 62
     0
 10
526.704308
 20
237.851188
 30
0.0
 11
527.663892
 21
238.810771
 31
0.0
  0
LINE
  5
60C
  8
0
 62
     0
 10
529.443775
 20
240.590655
 30
0.0
 11
531.223659
 21
242.370539
 31
0.0
  0
LINE
  5
60D
  8
0
 62
     0
 10
523.944631
 20
234.914734
 30
0.0
 11
525.83357
 21
236.803673
 31
0.0
  0
LINE
  5
60E
  8
0
 62
     0
 10
531.94245
 20
242.912553
 30
0.0
 11
534.545759
 21
245.515862
 31
0.0
  0
LINE
  5
60F
  8
0
 62
     0
 10
526.840467
 20
237.81057
 30
0.0
 11
527.663892
 21
238.633995
 31
0.0
  0
LINE
  5
610
  8
0
 62
     0
 10
529.443775
 20
240.413878
 30
0.0
 11
531.223659
 21
242.193762
 31
0.0
  0
LINE
  5
611
  8
0
 62
     0
 10
524.061678
 20
234.855005
 30
0.0
 11
525.961837
 21
236.755163
 31
0.0
  0
LINE
  5
612
  8
0
 62
     0
 10
532.119227
 20
242.912553
 30
0.0
 11
534.583723
 21
245.37705
 31
0.0
  0
LINE
  5
613
  8
0
 62
     0
 10
526.979279
 20
237.772605
 30
0.0
 11
527.663892
 21
238.457218
 31
0.0
  0
LINE
  5
614
  8
0
 62
     0
 10
529.443775
 20
240.237102
 30
0.0
 11
531.223659
 21
242.016985
 31
0.0
  0
LINE
  5
615
  8
0
 62
     0
 10
524.180016
 20
234.796566
 30
0.0
 11
526.092071
 21
236.70862
 31
0.0
  0
LINE
  5
616
  8
0
 62
     0
 10
532.296004
 20
242.912553
 30
0.0
 11
534.618927
 21
245.235477
 31
0.0
  0
LINE
  5
617
  8
0
 62
     0
 10
527.120852
 20
237.737402
 30
0.0
 11
527.663892
 21
238.280441
 31
0.0
  0
LINE
  5
618
  8
0
 62
     0
 10
529.443775
 20
240.060325
 30
0.0
 11
531.223659
 21
241.840209
 31
0.0
  0
LINE
  5
619
  8
0
 62
     0
 10
524.299662
 20
234.739435
 30
0.0
 11
526.224324
 21
236.664097
 31
0.0
  0
LINE
  5
61A
  8
0
 62
     0
 10
532.47278
 20
242.912553
 30
0.0
 11
534.65125
 21
245.091023
 31
0.0
  0
LINE
  5
61B
  8
0
 62
     0
 10
527.265305
 20
237.705078
 30
0.0
 11
527.663892
 21
238.103665
 31
0.0
  0
LINE
  5
61C
  8
0
 62
     0
 10
529.443775
 20
239.883548
 30
0.0
 11
531.223659
 21
241.663432
 31
0.0
  0
LINE
  5
61D
  8
0
 62
     0
 10
524.420634
 20
234.68363
 30
0.0
 11
526.358654
 21
236.621651
 31
0.0
  0
LINE
  5
61E
  8
0
 62
     0
 10
532.649557
 20
242.912553
 30
0.0
 11
534.68056
 21
244.943556
 31
0.0
  0
LINE
  5
61F
  8
0
 62
     0
 10
527.412772
 20
237.675769
 30
0.0
 11
527.663892
 21
237.926888
 31
0.0
  0
LINE
  5
620
  8
0
 62
     0
 10
529.443775
 20
239.706772
 30
0.0
 11
531.223659
 21
241.486655
 31
0.0
  0
LINE
  5
621
  8
0
 62
     0
 10
524.542952
 20
234.629171
 30
0.0
 11
526.495123
 21
236.581342
 31
0.0
  0
LINE
  5
622
  8
0
 62
     0
 10
532.817837
 20
242.904057
 30
0.0
 11
534.706706
 21
244.792926
 31
0.0
  0
LINE
  5
623
  8
0
 62
     0
 10
529.443775
 20
239.529995
 30
0.0
 11
531.223659
 21
241.309878
 31
0.0
  0
LINE
  5
624
  8
0
 62
     0
 10
524.666637
 20
234.57608
 30
0.0
 11
526.633796
 21
236.543239
 31
0.0
  0
LINE
  5
625
  8
0
 62
     0
 10
532.886301
 20
242.795744
 30
0.0
 11
534.729521
 21
244.638964
 31
0.0
  0
LINE
  5
626
  8
0
 62
     0
 10
529.443775
 20
239.353218
 30
0.0
 11
531.223659
 21
241.133102
 31
0.0
  0
LINE
  5
627
  8
0
 62
     0
 10
524.791711
 20
234.524377
 30
0.0
 11
526.774749
 21
236.507415
 31
0.0
  0
LINE
  5
628
  8
0
 62
     0
 10
532.82623
 20
242.558896
 30
0.0
 11
534.748813
 21
244.48148
 31
0.0
  0
LINE
  5
629
  8
0
 62
     0
 10
529.443775
 20
239.176441
 30
0.0
 11
531.223659
 21
240.956325
 31
0.0
  0
LINE
  5
62A
  8
0
 62
     0
 10
524.918198
 20
234.474087
 30
0.0
 11
526.91806
 21
236.47395
 31
0.0
  0
LINE
  5
62B
  8
0
 62
     0
 10
532.74113
 20
242.29702
 30
0.0
 11
534.764366
 21
244.320256
 31
0.0
  0
LINE
  5
62C
  8
0
 62
     0
 10
529.443775
 20
238.999665
 30
0.0
 11
531.223659
 21
240.779548
 31
0.0
  0
LINE
  5
62D
  8
0
 62
     0
 10
525.046122
 20
234.425235
 30
0.0
 11
527.063818
 21
236.442931
 31
0.0
  0
LINE
  5
62E
  8
0
 62
     0
 10
532.623092
 20
242.002205
 30
0.0
 11
534.775932
 21
244.155044
 31
0.0
  0
LINE
  5
62F
  8
0
 62
     0
 10
529.443775
 20
238.822888
 30
0.0
 11
531.223659
 21
240.602772
 31
0.0
  0
LINE
  5
630
  8
0
 62
     0
 10
525.175511
 20
234.377848
 30
0.0
 11
527.212119
 21
236.414455
 31
0.0
  0
LINE
  5
631
  8
0
 62
     0
 10
532.449029
 20
241.651365
 30
0.0
 11
534.783222
 21
243.985558
 31
0.0
  0
LINE
  5
632
  8
0
 62
     0
 10
529.443775
 20
238.646111
 30
0.0
 11
531.223659
 21
240.425995
 31
0.0
  0
LINE
  5
633
  8
0
 62
     0
 10
525.306393
 20
234.331953
 30
0.0
 11
527.363069
 21
236.388629
 31
0.0
  0
LINE
  5
634
  8
0
 62
     0
 10
532.132508
 20
241.158067
 30
0.0
 11
534.785905
 21
243.811464
 31
0.0
  0
LINE
  5
635
  8
0
 62
     0
 10
529.443775
 20
238.469335
 30
0.0
 11
531.223659
 21
240.249218
 31
0.0
  0
LINE
  5
636
  8
0
 62
     0
 10
525.438798
 20
234.287581
 30
0.0
 11
527.516786
 21
236.365569
 31
0.0
  0
LINE
  5
637
  8
0
 62
     0
 10
532.034637
 20
240.88342
 30
0.0
 11
534.783589
 21
243.632372
 31
0.0
  0
LINE
  5
638
  8
0
 62
     0
 10
529.443775
 20
238.292558
 30
0.0
 11
531.223659
 21
240.072442
 31
0.0
  0
LINE
  5
639
  8
0
 62
     0
 10
525.572758
 20
234.244764
 30
0.0
 11
527.6734
 21
236.345406
 31
0.0
  0
LINE
  5
63A
  8
0
 62
     0
 10
532.129853
 20
240.801859
 30
0.0
 11
534.775811
 21
243.447817
 31
0.0
  0
LINE
  5
63B
  8
0
 62
     0
 10
529.443775
 20
238.115781
 30
0.0
 11
531.223659
 21
239.895665
 31
0.0
  0
LINE
  5
63C
  8
0
 62
     0
 10
525.708306
 20
234.203536
 30
0.0
 11
527.833056
 21
236.328285
 31
0.0
  0
LINE
  5
63D
  8
0
 62
     0
 10
532.225974
 20
240.721203
 30
0.0
 11
534.762013
 21
243.257243
 31
0.0
  0
LINE
  5
63E
  8
0
 62
     0
 10
529.443775
 20
237.939005
 30
0.0
 11
531.223659
 21
239.718888
 31
0.0
  0
LINE
  5
63F
  8
0
 62
     0
 10
525.845481
 20
234.163934
 30
0.0
 11
527.995914
 21
236.314367
 31
0.0
  0
LINE
  5
640
  8
0
 62
     0
 10
532.322095
 20
240.640548
 30
0.0
 11
534.741519
 21
243.059972
 31
0.0
  0
LINE
  5
641
  8
0
 62
     0
 10
529.463873
 20
237.782326
 30
0.0
 11
531.223659
 21
239.542111
 31
0.0
  0
LINE
  5
642
  8
0
 62
     0
 10
525.98432
 20
234.125996
 30
0.0
 11
528.162157
 21
236.303834
 31
0.0
  0
LINE
  5
643
  8
0
 62
     0
 10
532.418217
 20
240.559893
 30
0.0
 11
534.713489
 21
242.855165
 31
0.0
  0
LINE
  5
644
  8
0
 62
     0
 10
529.550901
 20
237.692577
 30
0.0
 11
531.223659
 21
239.365335
 31
0.0
  0
LINE
  5
645
  8
0
 62
     0
 10
526.124864
 20
234.089764
 30
0.0
 11
528.33199
 21
236.296889
 31
0.0
  0
LINE
  5
646
  8
0
 62
     0
 10
532.514338
 20
240.479237
 30
0.0
 11
534.676863
 21
242.641763
 31
0.0
  0
LINE
  5
647
  8
0
 62
     0
 10
529.714566
 20
237.679465
 30
0.0
 11
531.223659
 21
239.188558
 31
0.0
  0
LINE
  5
648
  8
0
 62
     0
 10
526.267159
 20
234.055282
 30
0.0
 11
528.505643
 21
236.293766
 31
0.0
  0
LINE
  5
649
  8
0
 62
     0
 10
532.610459
 20
240.398582
 30
0.0
 11
534.630267
 21
242.41839
 31
0.0
  0
LINE
  5
64A
  8
0
 62
     0
 10
529.937939
 20
237.726061
 30
0.0
 11
531.223659
 21
239.011781
 31
0.0
  0
LINE
  5
64B
  8
0
 62
     0
 10
526.411252
 20
234.022598
 30
0.0
 11
528.683383
 21
236.294729
 31
0.0
  0
LINE
  5
64C
  8
0
 62
     0
 10
532.706581
 20
240.317927
 30
0.0
 11
534.571866
 21
242.183212
 31
0.0
  0
LINE
  5
64D
  8
0
 62
     0
 10
530.173116
 20
237.784462
 30
0.0
 11
531.223659
 21
238.835005
 31
0.0
  0
LINE
  5
64E
  8
0
 62
     0
 10
526.557193
 20
233.991763
 30
0.0
 11
528.865513
 21
236.300083
 31
0.0
  0
LINE
  5
64F
  8
0
 62
     0
 10
532.802702
 20
240.237271
 30
0.0
 11
534.499111
 21
241.93368
 31
0.0
  0
LINE
  5
650
  8
0
 62
     0
 10
530.422648
 20
237.857218
 30
0.0
 11
531.223659
 21
238.658228
 31
0.0
  0
LINE
  5
651
  8
0
 62
     0
 10
526.705038
 20
233.962831
 30
0.0
 11
529.052388
 21
236.31018
 31
0.0
  0
LINE
  5
652
  8
0
 62
     0
 10
532.898823
 20
240.156616
 30
0.0
 11
534.408273
 21
241.666066
 31
0.0
  0
LINE
  5
653
  8
0
 62
     0
 10
530.690263
 20
237.948055
 30
0.0
 11
531.223659
 21
238.481451
 31
0.0
  0
LINE
  5
654
  8
0
 62
     0
 10
526.854845
 20
233.93586
 30
0.0
 11
529.244419
 21
236.325435
 31
0.0
  0
LINE
  5
655
  8
0
 62
     0
 10
532.994945
 20
240.07596
 30
0.0
 11
534.293491
 21
241.374507
 31
0.0
  0
LINE
  5
656
  8
0
 62
     0
 10
530.981822
 20
238.062838
 30
0.0
 11
531.223659
 21
238.304675
 31
0.0
  0
LINE
  5
657
  8
0
 62
     0
 10
527.006676
 20
233.910916
 30
0.0
 11
529.442096
 21
236.346335
 31
0.0
  0
LINE
  5
658
  8
0
 62
     0
 10
533.091066
 20
239.995305
 30
0.0
 11
534.144512
 21
241.048752
 31
0.0
  0
LINE
  5
659
  8
0
 62
     0
 10
527.160601
 20
233.888064
 30
0.0
 11
529.646001
 21
236.373464
 31
0.0
  0
LINE
  5
65A
  8
0
 62
     0
 10
533.18788
 20
239.915343
 30
0.0
 11
533.939906
 21
240.667368
 31
0.0
  0
LINE
  5
65B
  8
0
 62
     0
 10
527.316693
 20
233.867379
 30
0.0
 11
529.856845
 21
236.407531
 31
0.0
  0
LINE
  5
65C
  8
0
 62
     0
 10
533.332323
 20
239.883008
 30
0.0
 11
533.613948
 21
240.164634
 31
0.0
  0
LINE
  5
65D
  8
0
 62
     0
 10
527.475032
 20
233.848941
 30
0.0
 11
530.075501
 21
236.44941
 31
0.0
  0
LINE
  5
65E
  8
0
 62
     0
 10
527.635705
 20
233.832837
 30
0.0
 11
530.303067
 21
236.5002
 31
0.0
  0
LINE
  5
65F
  8
0
 62
     0
 10
527.798805
 20
233.81916
 30
0.0
 11
530.540961
 21
236.561317
 31
0.0
  0
LINE
  5
660
  8
0
 62
     0
 10
527.964435
 20
233.808014
 30
0.0
 11
530.791061
 21
236.63464
 31
0.0
  0
LINE
  5
661
  8
0
 62
     0
 10
528.132708
 20
233.799511
 30
0.0
 11
531.055951
 21
236.722753
 31
0.0
  0
LINE
  5
662
  8
0
 62
     0
 10
528.303748
 20
233.793774
 30
0.0
 11
531.339369
 21
236.829395
 31
0.0
  0
LINE
  5
663
  8
0
 62
     0
 10
528.477691
 20
233.79094
 30
0.0
 11
531.64709
 21
236.960339
 31
0.0
  0
LINE
  5
664
  8
0
 62
     0
 10
528.654686
 20
233.791158
 30
0.0
 11
531.988949
 21
237.125421
 31
0.0
  0
LINE
  5
665
  8
0
 62
     0
 10
528.834901
 20
233.794596
 30
0.0
 11
532.384558
 21
237.344253
 31
0.0
  0
LINE
  5
666
  8
0
 62
     0
 10
529.018521
 20
233.80144
 30
0.0
 11
532.887414
 21
237.670333
 31
0.0
  0
LINE
  5
667
  8
0
 62
     0
 10
529.205755
 20
233.811898
 30
0.0
 11
534.324638
 21
238.93078
 31
0.0
  0
LINE
  5
668
  8
0
 62
     0
 10
529.396839
 20
233.826204
 30
0.0
 11
534.436764
 21
238.86613
 31
0.0
  0
LINE
  5
669
  8
0
 62
     0
 10
529.592036
 20
233.844625
 30
0.0
 11
534.532886
 21
238.785475
 31
0.0
  0
LINE
  5
66A
  8
0
 62
     0
 10
529.791652
 20
233.867464
 30
0.0
 11
534.629007
 21
238.704819
 31
0.0
  0
LINE
  5
66B
  8
0
 62
     0
 10
529.996033
 20
233.895069
 30
0.0
 11
534.725128
 21
238.624164
 31
0.0
  0
LINE
  5
66C
  8
0
 62
     0
 10
530.205584
 20
233.927843
 30
0.0
 11
534.82125
 21
238.543508
 31
0.0
  0
LINE
  5
66D
  8
0
 62
     0
 10
530.420776
 20
233.966258
 30
0.0
 11
534.917371
 21
238.462853
 31
0.0
  0
LINE
  5
66E
  8
0
 62
     0
 10
530.642165
 20
234.010871
 30
0.0
 11
535.013492
 21
238.382198
 31
0.0
  0
LINE
  5
66F
  8
0
 62
     0
 10
530.870419
 20
234.062348
 30
0.0
 11
535.109614
 21
238.301542
 31
0.0
  0
LINE
  5
670
  8
0
 62
     0
 10
531.106345
 20
234.121497
 30
0.0
 11
535.205735
 21
238.220887
 31
0.0
  0
LINE
  5
671
  8
0
 62
     0
 10
531.350939
 20
234.189315
 30
0.0
 11
535.301856
 21
238.140232
 31
0.0
  0
LINE
  5
672
  8
0
 62
     0
 10
531.605455
 20
234.267053
 30
0.0
 11
535.397978
 21
238.059576
 31
0.0
  0
LINE
  5
673
  8
0
 62
     0
 10
531.871505
 20
234.356327
 30
0.0
 11
535.494099
 21
237.978921
 31
0.0
  0
LINE
  5
674
  8
0
 62
     0
 10
532.151228
 20
234.459273
 30
0.0
 11
535.59022
 21
237.898266
 31
0.0
  0
LINE
  5
675
  8
0
 62
     0
 10
532.447569
 20
234.578837
 30
0.0
 11
535.686342
 21
237.81761
 31
0.0
  0
LINE
  5
676
  8
0
 62
     0
 10
532.764778
 20
234.719269
 30
0.0
 11
535.782463
 21
237.736955
 31
0.0
  0
LINE
  5
677
  8
0
 62
     0
 10
533.109417
 20
234.887132
 30
0.0
 11
535.878584
 21
237.656299
 31
0.0
  0
LINE
  5
678
  8
0
 62
     0
 10
533.49264
 20
235.093578
 30
0.0
 11
535.974706
 21
237.575644
 31
0.0
  0
LINE
  5
679
  8
0
 62
     0
 10
533.9366
 20
235.360761
 30
0.0
 11
536.070827
 21
237.494989
 31
0.0
  0
LINE
  5
67A
  8
0
 62
     0
 10
534.501104
 20
235.748489
 30
0.0
 11
536.162285
 21
237.40967
 31
0.0
  0
ENDBLK
  5
67B
  8
0
  0
BLOCK
  8
0
  2
*X7
 70
     1
 10
0.0
 20
0.0
 30
0.0
  3
*X7
  1

  0
LINE
  5
67D
  8
0
 62
     0
 10
536.966204
 20
241.218792
 30
0.0
 11
537.437134
 21
241.689723
 31
0.0
  0
LINE
  5
67E
  8
0
 62
     0
 10
541.675473
 20
245.928061
 30
0.0
 11
542.146403
 21
246.398992
 31
0.0
  0
LINE
  5
67F
  8
0
 62
     0
 10
536.879542
 20
241.308908
 30
0.0
 11
537.350857
 21
241.780222
 31
0.0
  0
LINE
  5
680
  8
0
 62
     0
 10
541.584973
 20
246.014339
 30
0.0
 11
542.056288
 21
246.485653
 31
0.0
  0
LINE
  5
681
  8
0
 62
     0
 10
536.795904
 20
241.402046
 30
0.0
 11
537.268279
 21
241.874421
 31
0.0
  0
LINE
  5
682
  8
0
 62
     0
 10
541.490774
 20
246.096916
 30
0.0
 11
541.963149
 21
246.569291
 31
0.0
  0
LINE
  5
683
  8
0
 62
     0
 10
536.715306
 20
241.498225
 30
0.0
 11
537.189431
 21
241.97235
 31
0.0
  0
LINE
  5
684
  8
0
 62
     0
 10
541.392846
 20
246.175764
 30
0.0
 11
541.86697
 21
246.649889
 31
0.0
  0
LINE
  5
685
  8
0
 62
     0
 10
536.637776
 20
241.597471
 30
0.0
 11
537.114364
 21
242.07406
 31
0.0
  0
LINE
  5
686
  8
0
 62
     0
 10
541.291136
 20
246.250831
 30
0.0
 11
541.767724
 21
246.72742
 31
0.0
  0
LINE
  5
687
  8
0
 62
     0
 10
536.563352
 20
241.699824
 30
0.0
 11
537.043151
 21
242.179623
 31
0.0
  0
LINE
  5
688
  8
0
 62
     0
 10
541.185572
 20
246.322044
 30
0.0
 11
541.665371
 21
246.801843
 31
0.0
  0
LINE
  5
689
  8
0
 62
     0
 10
536.492086
 20
241.805335
 30
0.0
 11
536.975889
 21
242.289138
 31
0.0
  0
LINE
  5
68A
  8
0
 62
     0
 10
541.076057
 20
246.389306
 30
0.0
 11
541.55986
 21
246.873109
 31
0.0
  0
LINE
  5
68B
  8
0
 62
     0
 10
536.424044
 20
241.914069
 30
0.0
 11
536.912702
 21
242.402728
 31
0.0
  0
LINE
  5
68C
  8
0
 62
     0
 10
540.962468
 20
246.452493
 30
0.0
 11
541.451126
 21
246.941152
 31
0.0
  0
LINE
  5
68D
  8
0
 62
     0
 10
536.359303
 20
242.026105
 30
0.0
 11
536.853744
 21
242.520546
 31
0.0
  0
LINE
  5
68E
  8
0
 62
     0
 10
540.844649
 20
246.511452
 30
0.0
 11
541.33909
 21
247.005892
 31
0.0
  0
LINE
  5
68F
  8
0
 62
     0
 10
536.297959
 20
242.141538
 30
0.0
 11
536.799204
 21
242.642784
 31
0.0
  0
LINE
  5
690
  8
0
 62
     0
 10
540.722412
 20
246.565991
 30
0.0
 11
541.223658
 21
247.067237
 31
0.0
  0
LINE
  5
691
  8
0
 62
     0
 10
536.240125
 20
242.260481
 30
0.0
 11
536.749318
 21
242.769674
 31
0.0
  0
LINE
  5
692
  8
0
 62
     0
 10
540.595522
 20
246.615877
 30
0.0
 11
541.104715
 21
247.12507
 31
0.0
  0
LINE
  5
693
  8
0
 62
     0
 10
536.185935
 20
242.383068
 30
0.0
 11
536.70437
 21
242.901502
 31
0.0
  0
LINE
  5
694
  8
0
 62
     0
 10
540.463693
 20
246.660825
 30
0.0
 11
540.982128
 21
247.17926
 31
0.0
  0
LINE
  5
695
  8
0
 62
     0
 10
536.135548
 20
242.509457
 30
0.0
 11
536.664712
 21
243.038621
 31
0.0
  0
LINE
  5
696
  8
0
 62
     0
 10
540.326574
 20
246.700483
 30
0.0
 11
540.855738
 21
247.229647
 31
0.0
  0
LINE
  5
697
  8
0
 62
     0
 10
536.089151
 20
242.639837
 30
0.0
 11
536.630779
 21
243.181465
 31
0.0
  0
LINE
  5
698
  8
0
 62
     0
 10
540.18373
 20
246.734416
 30
0.0
 11
540.725358
 21
247.276044
 31
0.0
  0
LINE
  5
699
  8
0
 62
     0
 10
536.046965
 20
242.774428
 30
0.0
 11
536.603117
 21
243.330579
 31
0.0
  0
LINE
  5
69A
  8
0
 62
     0
 10
540.034616
 20
246.762079
 30
0.0
 11
540.590768
 21
247.31823
 31
0.0
  0
LINE
  5
69B
  8
0
 62
     0
 10
536.009253
 20
242.913492
 30
0.0
 11
536.582417
 21
243.486657
 31
0.0
  0
LINE
  5
69C
  8
0
 62
     0
 10
539.878539
 20
246.782778
 30
0.0
 11
540.451703
 21
247.355943
 31
0.0
  0
LINE
  5
69D
  8
0
 62
     0
 10
535.976328
 20
243.057344
 30
0.0
 11
536.56958
 21
243.650596
 31
0.0
  0
LINE
  5
69E
  8
0
 62
     0
 10
539.714599
 20
246.795615
 30
0.0
 11
540.307851
 21
247.388867
 31
0.0
  0
LINE
  5
69F
  8
0
 62
     0
 10
535.948569
 20
243.206362
 30
0.0
 11
536.565803
 21
243.823595
 31
0.0
  0
LINE
  5
6A0
  8
0
 62
     0
 10
539.5416
 20
246.799393
 30
0.0
 11
540.158833
 21
247.416626
 31
0.0
  0
LINE
  5
6A1
  8
0
 62
     0
 10
535.926438
 20
243.361007
 30
0.0
 11
536.572735
 21
244.007304
 31
0.0
  0
LINE
  5
6A2
  8
0
 62
     0
 10
539.357891
 20
246.792461
 30
0.0
 11
540.004188
 21
247.438758
 31
0.0
  0
LINE
  5
6A3
  8
0
 62
     0
 10
535.910502
 20
243.521848
 30
0.0
 11
536.592759
 21
244.204105
 31
0.0
  0
LINE
  5
6A4
  8
0
 62
     0
 10
539.16109
 20
246.772436
 30
0.0
 11
539.843348
 21
247.454694
 31
0.0
  0
LINE
  5
6A5
  8
0
 62
     0
 10
535.901475
 20
243.689598
 30
0.0
 11
536.629544
 21
244.417667
 31
0.0
  0
LINE
  5
6A6
  8
0
 62
     0
 10
538.947528
 20
246.735651
 30
0.0
 11
539.675598
 21
247.46372
 31
0.0
  0
LINE
  5
6A7
  8
0
 62
     0
 10
535.900271
 20
243.86517
 30
0.0
 11
536.689297
 21
244.654197
 31
0.0
  0
LINE
  5
6A8
  8
0
 62
     0
 10
538.710999
 20
246.675898
 30
0.0
 11
539.500025
 21
247.464924
 31
0.0
  0
LINE
  5
6A9
  8
0
 62
     0
 10
535.90809
 20
244.049766
 30
0.0
 11
536.784263
 21
244.925939
 31
0.0
  0
LINE
  5
6AA
  8
0
 62
     0
 10
538.439256
 20
246.580933
 30
0.0
 11
539.315429
 21
247.457105
 31
0.0
  0
LINE
  5
6AB
  8
0
 62
     0
 10
535.926563
 20
244.245016
 30
0.0
 11
536.947127
 21
245.26558
 31
0.0
  0
LINE
  5
6AC
  8
0
 62
     0
 10
538.099616
 20
246.418069
 30
0.0
 11
539.120179
 21
247.438632
 31
0.0
  0
LINE
  5
6AD
  8
0
 62
     0
 10
535.958
 20
244.45323
 30
0.0
 11
538.911966
 21
247.407195
 31
0.0
  0
LINE
  5
6AE
  8
0
 62
     0
 10
536.005873
 20
244.677879
 30
0.0
 11
538.687316
 21
247.359322
 31
0.0
  0
LINE
  5
6AF
  8
0
 62
     0
 10
536.07585
 20
244.924633
 30
0.0
 11
538.440562
 21
247.289345
 31
0.0
  0
LINE
  5
6B0
  8
0
 62
     0
 10
536.178469
 20
245.204029
 30
0.0
 11
538.161167
 21
247.186726
 31
0.0
  0
LINE
  5
6B1
  8
0
 62
     0
 10
536.338493
 20
245.54083
 30
0.0
 11
537.824366
 21
247.026702
 31
0.0
  0
LINE
  5
6B2
  8
0
 62
     0
 10
536.668217
 20
246.04733
 30
0.0
 11
537.317866
 21
246.696979
 31
0.0
  0
LINE
  5
6B3
  8
0
 62
     0
 10
537.055882
 20
241.131694
 30
0.0
 11
537.527099
 21
241.602911
 31
0.0
  0
LINE
  5
6B4
  8
0
 62
     0
 10
541.762284
 20
245.838096
 30
0.0
 11
542.233501
 21
246.309313
 31
0.0
  0
LINE
  5
6B5
  8
0
 62
     0
 10
537.148582
 20
241.047618
 30
0.0
 11
537.620761
 21
241.519797
 31
0.0
  0
LINE
  5
6B6
  8
0
 62
     0
 10
541.845399
 20
245.744434
 30
0.0
 11
542.317578
 21
246.216613
 31
0.0
  0
LINE
  5
6B7
  8
0
 62
     0
 10
537.244319
 20
240.966578
 30
0.0
 11
537.718147
 21
241.440406
 31
0.0
  0
LINE
  5
6B8
  8
0
 62
     0
 10
541.924789
 20
245.647048
 30
0.0
 11
542.398617
 21
246.120876
 31
0.0
  0
LINE
  5
6B9
  8
0
 62
     0
 10
537.343119
 20
240.888601
 30
0.0
 11
537.819306
 21
241.364788
 31
0.0
  0
LINE
  5
6BA
  8
0
 62
     0
 10
542.000407
 20
245.545889
 30
0.0
 11
542.476594
 21
246.022076
 31
0.0
  0
LINE
  5
6BB
  8
0
 62
     0
 10
537.44502
 20
240.813725
 30
0.0
 11
537.924307
 21
241.293012
 31
0.0
  0
LINE
  5
6BC
  8
0
 62
     0
 10
542.072183
 20
245.440889
 30
0.0
 11
542.55147
 21
245.920175
 31
0.0
  0
LINE
  5
6BD
  8
0
 62
     0
 10
537.55007
 20
240.741999
 30
0.0
 11
538.033243
 21
241.225171
 31
0.0
  0
LINE
  5
6BE
  8
0
 62
     0
 10
542.140024
 20
245.331953
 30
0.0
 11
542.623196
 21
245.815125
 31
0.0
  0
LINE
  5
6BF
  8
0
 62
     0
 10
537.658333
 20
240.673485
 30
0.0
 11
538.146233
 21
241.161385
 31
0.0
  0
LINE
  5
6C0
  8
0
 62
     0
 10
542.20381
 20
245.218962
 30
0.0
 11
542.69171
 21
245.706862
 31
0.0
  0
LINE
  5
6C1
  8
0
 62
     0
 10
537.769886
 20
240.608261
 30
0.0
 11
538.263429
 21
241.101804
 31
0.0
  0
LINE
  5
6C2
  8
0
 62
     0
 10
542.263391
 20
245.101767
 30
0.0
 11
542.756934
 21
245.59531
 31
0.0
  0
LINE
  5
6C3
  8
0
 62
     0
 10
537.88482
 20
240.546419
 30
0.0
 11
538.385013
 21
241.046612
 31
0.0
  0
LINE
  5
6C4
  8
0
 62
     0
 10
542.318583
 20
244.980182
 30
0.0
 11
542.818777
 21
245.480375
 31
0.0
  0
LINE
  5
6C5
  8
0
 62
     0
 10
538.003247
 20
240.488069
 30
0.0
 11
538.511214
 21
240.996036
 31
0.0
  0
LINE
  5
6C6
  8
0
 62
     0
 10
542.36916
 20
244.853982
 30
0.0
 11
542.877126
 21
245.361948
 31
0.0
  0
LINE
  5
6C7
  8
0
 62
     0
 10
538.125298
 20
240.433343
 30
0.0
 11
538.642308
 21
240.950353
 31
0.0
  0
LINE
  5
6C8
  8
0
 62
     0
 10
542.414843
 20
244.722888
 30
0.0
 11
542.931853
 21
245.239898
 31
0.0
  0
LINE
  5
6C9
  8
0
 62
     0
 10
538.251126
 20
240.382395
 30
0.0
 11
538.778636
 21
240.909904
 31
0.0
  0
LINE
  5
6CA
  8
0
 62
     0
 10
542.455291
 20
244.586559
 30
0.0
 11
542.982801
 21
245.114069
 31
0.0
  0
LINE
  5
6CB
  8
0
 62
     0
 10
538.380915
 20
240.335407
 30
0.0
 11
538.92062
 21
240.875112
 31
0.0
  0
LINE
  5
6CC
  8
0
 62
     0
 10
542.490083
 20
244.444575
 30
0.0
 11
543.029788
 21
244.98428
 31
0.0
  0
LINE
  5
6CD
  8
0
 62
     0
 10
538.514881
 20
240.292596
 30
0.0
 11
539.068788
 21
240.846503
 31
0.0
  0
LINE
  5
6CE
  8
0
 62
     0
 10
542.518692
 20
244.296407
 30
0.0
 11
543.072599
 21
244.850314
 31
0.0
  0
LINE
  5
6CF
  8
0
 62
     0
 10
538.65328
 20
240.254218
 30
0.0
 11
539.223808
 21
240.824746
 31
0.0
  0
LINE
  5
6D0
  8
0
 62
     0
 10
542.540449
 20
244.141388
 30
0.0
 11
543.110977
 21
244.711915
 31
0.0
  0
LINE
  5
6D1
  8
0
 62
     0
 10
538.796417
 20
240.220579
 30
0.0
 11
539.386544
 21
240.810705
 31
0.0
  0
LINE
  5
6D2
  8
0
 62
     0
 10
542.55449
 20
243.978652
 30
0.0
 11
543.144617
 21
244.568778
 31
0.0
  0
LINE
  5
6D3
  8
0
 62
     0
 10
538.944661
 20
240.192046
 30
0.0
 11
539.558142
 21
240.805527
 31
0.0
  0
LINE
  5
6D4
  8
0
 62
     0
 10
542.559668
 20
243.807053
 30
0.0
 11
543.173149
 21
244.420534
 31
0.0
  0
LINE
  5
6D5
  8
0
 62
     0
 10
539.098459
 20
240.169068
 30
0.0
 11
539.740175
 21
240.810783
 31
0.0
  0
LINE
  5
6D6
  8
0
 62
     0
 10
542.554412
 20
243.625021
 30
0.0
 11
543.196128
 21
244.266736
 31
0.0
  0
LINE
  5
6D7
  8
0
 62
     0
 10
539.258363
 20
240.152195
 30
0.0
 11
539.934893
 21
240.828725
 31
0.0
  0
LINE
  5
6D8
  8
0
 62
     0
 10
542.536471
 20
243.430302
 30
0.0
 11
543.213001
 21
244.106832
 31
0.0
  0
LINE
  5
6D9
  8
0
 62
     0
 10
539.425062
 20
240.142117
 30
0.0
 11
540.145726
 21
240.862781
 31
0.0
  0
LINE
  5
6DA
  8
0
 62
     0
 10
542.502414
 20
243.219469
 30
0.0
 11
543.223079
 21
243.940133
 31
0.0
  0
LINE
  5
6DB
  8
0
 62
     0
 10
539.599436
 20
240.139714
 30
0.0
 11
540.378383
 21
240.918661
 31
0.0
  0
LINE
  5
6DC
  8
0
 62
     0
 10
542.446534
 20
242.986813
 30
0.0
 11
543.225481
 21
243.765759
 31
0.0
  0
LINE
  5
6DD
  8
0
 62
     0
 10
539.782637
 20
240.146139
 30
0.0
 11
540.643814
 21
241.007315
 31
0.0
  0
LINE
  5
6DE
  8
0
 62
     0
 10
542.35788
 20
242.721382
 30
0.0
 11
543.219057
 21
243.582558
 31
0.0
  0
LINE
  5
6DF
  8
0
 62
     0
 10
539.976222
 20
240.162947
 30
0.0
 11
540.969498
 21
241.156223
 31
0.0
  0
LINE
  5
6E0
  8
0
 62
     0
 10
542.208973
 20
242.395698
 30
0.0
 11
543.202249
 21
243.388974
 31
0.0
  0
LINE
  5
6E1
  8
0
 62
     0
 10
540.182379
 20
240.192327
 30
0.0
 11
541.543393
 21
241.553341
 31
0.0
  0
LINE
  5
6E2
  8
0
 62
     0
 10
541.811854
 20
241.821802
 30
0.0
 11
543.172868
 21
243.182816
 31
0.0
  0
LINE
  5
6E3
  8
0
 62
     0
 10
540.404368
 20
240.237539
 30
0.0
 11
543.127656
 21
242.960827
 31
0.0
  0
LINE
  5
6E4
  8
0
 62
     0
 10
540.647434
 20
240.303829
 30
0.0
 11
543.061367
 21
242.717761
 31
0.0
  0
LINE
  5
6E5
  8
0
 62
     0
 10
540.921106
 20
240.400724
 30
0.0
 11
542.964472
 21
242.44409
 31
0.0
  0
LINE
  5
6E6
  8
0
 62
     0
 10
541.24678
 20
240.549621
 30
0.0
 11
542.815574
 21
242.118416
 31
0.0
  0
LINE
  5
6E7
  8
0
 62
     0
 10
541.705926
 20
240.831991
 30
0.0
 11
542.533205
 21
241.659269
 31
0.0
  0
ENDBLK
  5
6E8
  8
0
  0
BLOCK
  8
SCHRAFFIERT
  2
*X8
 70
     1
 10
0.0
 20
0.0
 30
0.0
  3
*X8
  1

  0
LINE
  5
B66
  8
0
 62
     0
 10
68.136936
 20
190.664146
 30
0.0
 11
64.521251
 21
194.279831
 31
0.0
  0
LINE
  5
B67
  8
0
 62
     0
 10
69.974851
 20
190.240445
 30
0.0
 11
65.329373
 21
194.885923
 31
0.0
  0
LINE
  5
B68
  8
0
 62
     0
 10
70.744992
 20
190.884517
 30
0.0
 11
66.239463
 21
195.390046
 31
0.0
  0
LINE
  5
B69
  8
0
 62
     0
 10
70.940701
 20
192.103022
 30
0.0
 11
69.107499
 21
193.936224
 31
0.0
  0
LINE
  5
B6A
  8
0
 62
     0
 10
65.998946
 20
191.387923
 30
0.0
 11
63.713129
 21
193.673739
 31
0.0
  0
LINE
  5
B6B
  8
0
 62
     0
 10
65.190721
 20
190.781934
 30
0.0
 11
62.905007
 21
193.067648
 31
0.0
  0
LINE
  5
B6C
  8
0
 62
     0
 10
64.333667
 20
190.224774
 30
0.0
 11
62.282207
 21
192.276234
 31
0.0
  0
LINE
  5
B6D
  8
0
 62
     0
 10
64.375824
 20
190.240831
 30
0.0
 11
68.515338
 21
194.380345
 31
0.0
  0
LINE
  5
B6E
  8
0
 62
     0
 10
63.035314
 20
190.314535
 30
0.0
 11
67.707216
 21
194.986436
 31
0.0
  0
LINE
  5
B6F
  8
0
 62
     0
 10
62.342607
 20
191.036041
 30
0.0
 11
66.728055
 21
195.421489
 31
0.0
  0
LINE
  5
B70
  8
0
 62
     0
 10
62.373968
 20
192.481616
 30
0.0
 11
63.12498
 21
193.232628
 31
0.0
  0
LINE
  5
B71
  8
0
 62
     0
 10
67.02515
 20
191.475943
 30
0.0
 11
69.32346
 21
193.774253
 31
0.0
  0
LINE
  5
B72
  8
0
 62
     0
 10
67.845867
 20
190.882447
 30
0.0
 11
70.131582
 21
193.168162
 31
0.0
  0
LINE
  5
B73
  8
0
 62
     0
 10
68.67287
 20
190.295237
 30
0.0
 11
70.817937
 21
192.440303
 31
0.0
  0
LINE
  5
B74
  8
0
 62
     0
 10
70.076919
 20
190.285072
 30
0.0
 11
70.828102
 21
191.036255
 31
0.0
  0
ENDBLK
  5
B76
  8
SCHRAFFIERT
  0
BLOCK
  8
SCHRAFFIERT
  2
*X9
 70
     1
 10
0.0
 20
0.0
 30
0.0
  3
*X9
  1

  0
LINE
  5
B78
  8
0
 62
     0
 10
53.377077
 20
177.82787
 30
0.0
 11
54.377077
 21
178.82787
 31
0.0
  0
LINE
  5
B79
  8
0
 62
     0
 10
56.185303
 20
180.636097
 30
0.0
 11
58.585303
 21
183.036097
 31
0.0
  0
LINE
  5
B7A
  8
0
 62
     0
 10
52.185303
 20
178.05031
 30
0.0
 11
52.962863
 21
178.82787
 31
0.0
  0
LINE
  5
B7B
  8
0
 62
     0
 10
56.185303
 20
182.05031
 30
0.0
 11
58.585303
 21
184.45031
 31
0.0
  0
LINE
  5
B7C
  8
0
 62
     0
 10
56.185303
 20
183.464524
 30
0.0
 11
57.24865
 21
184.52787
 31
0.0
  0
LINE
  5
B7D
  8
0
 62
     0
 10
54.79129
 20
177.82787
 30
0.0
 11
55.79129
 21
178.82787
 31
0.0
  0
LINE
  5
B7E
  8
0
 62
     0
 10
56.185303
 20
179.221883
 30
0.0
 11
58.585303
 21
181.621883
 31
0.0
  0
LINE
  5
B7F
  8
0
 62
     0
 10
56.205504
 20
177.82787
 30
0.0
 11
58.585303
 21
180.20767
 31
0.0
  0
LINE
  5
B80
  8
0
 62
     0
 10
57.619718
 20
177.82787
 30
0.0
 11
58.585303
 21
178.793456
 31
0.0
  0
ENDBLK
  5
B82
  8
SCHRAFFIERT
  0
BLOCK
  8
SCHRAFFIERT
  2
*X10
 70
     1
 10
0.0
 20
0.0
 30
0.0
  3
*X10
  1

  0
LINE
  5
B84
  8
0
 62
     0
 10
56.185303
 20
190.535592
 30
0.0
 11
58.585303
 21
192.935592
 31
0.0
  0
LINE
  5
B85
  8
0
 62
     0
 10
56.185303
 20
191.949805
 30
0.0
 11
58.585303
 21
194.349805
 31
0.0
  0
LINE
  5
B86
  8
0
 62
     0
 10
56.185303
 20
193.364019
 30
0.0
 11
58.585303
 21
195.764019
 31
0.0
  0
LINE
  5
B87
  8
0
 62
     0
 10
56.185303
 20
194.778233
 30
0.0
 11
58.585303
 21
197.178233
 31
0.0
  0
LINE
  5
B88
  8
0
 62
     0
 10
56.185303
 20
196.192446
 30
0.0
 11
58.585303
 21
198.592446
 31
0.0
  0
LINE
  5
B89
  8
0
 62
     0
 10
56.185303
 20
197.60666
 30
0.0
 11
57.506514
 21
198.92787
 31
0.0
  0
LINE
  5
B8A
  8
0
 62
     0
 10
56.185303
 20
189.121378
 30
0.0
 11
58.585303
 21
191.521378
 31
0.0
  0
LINE
  5
B8B
  8
0
 62
     0
 10
56.185303
 20
187.707165
 30
0.0
 11
58.585303
 21
190.107165
 31
0.0
  0
LINE
  5
B8C
  8
0
 62
     0
 10
56.185303
 20
186.292951
 30
0.0
 11
58.585303
 21
188.692951
 31
0.0
  0
LINE
  5
B8D
  8
0
 62
     0
 10
56.834436
 20
185.52787
 30
0.0
 11
58.585303
 21
187.278738
 31
0.0
  0
LINE
  5
B8E
  8
0
 62
     0
 10
58.24865
 20
185.52787
 30
0.0
 11
58.585303
 21
185.864524
 31
0.0
  0
ENDBLK
  5
B90
  8
SCHRAFFIERT
  0
BLOCK
  8
SCHRAFFIERT
  2
*X11
 70
     1
 10
0.0
 20
0.0
 30
0.0
  3
*X11
  1

  0
LINE
  5
B92
  8
0
 62
     0
 10
87.843269
 20
197.82787
 30
0.0
 11
84.243269
 21
201.42787
 31
0.0
  0
LINE
  5
B93
  8
0
 62
     0
 10
90.671696
 20
197.82787
 30
0.0
 11
87.071696
 21
201.42787
 31
0.0
  0
LINE
  5
B94
  8
0
 62
     0
 10
93.500124
 20
197.82787
 30
0.0
 11
89.900124
 21
201.42787
 31
0.0
  0
LINE
  5
B95
  8
0
 62
     0
 10
96.328551
 20
197.82787
 30
0.0
 11
92.728551
 21
201.42787
 31
0.0
  0
LINE
  5
B96
  8
0
 62
     0
 10
99.156978
 20
197.82787
 30
0.0
 11
94.585303
 21
202.399545
 31
0.0
  0
LINE
  5
B97
  8
0
 62
     0
 10
101.985405
 20
197.82787
 30
0.0
 11
94.585303
 21
205.227972
 31
0.0
  0
LINE
  5
B98
  8
0
 62
     0
 10
104.813832
 20
197.82787
 30
0.0
 11
94.585303
 21
208.056399
 31
0.0
  0
LINE
  5
B99
  8
0
 62
     0
 10
107.642259
 20
197.82787
 30
0.0
 11
104.042259
 21
201.42787
 31
0.0
  0
LINE
  5
B9A
  8
0
 62
     0
 10
103.585303
 20
201.884826
 30
0.0
 11
96.642259
 21
208.82787
 31
0.0
  0
LINE
  5
B9B
  8
0
 62
     0
 10
108.585303
 20
199.713253
 30
0.0
 11
106.870686
 21
201.42787
 31
0.0
  0
LINE
  5
B9C
  8
0
 62
     0
 10
103.585303
 20
204.713253
 30
0.0
 11
99.470686
 21
208.82787
 31
0.0
  0
LINE
  5
B9D
  8
0
 62
     0
 10
103.585303
 20
207.54168
 30
0.0
 11
102.299113
 21
208.82787
 31
0.0
  0
LINE
  5
B9E
  8
0
 62
     0
 10
85.014842
 20
197.82787
 30
0.0
 11
81.414842
 21
201.42787
 31
0.0
  0
LINE
  5
B9F
  8
0
 62
     0
 10
82.186415
 20
197.82787
 30
0.0
 11
78.586415
 21
201.42787
 31
0.0
  0
LINE
  5
BA0
  8
0
 62
     0
 10
79.357988
 20
197.82787
 30
0.0
 11
75.757988
 21
201.42787
 31
0.0
  0
LINE
  5
BA1
  8
0
 62
     0
 10
76.529561
 20
197.82787
 30
0.0
 11
72.929561
 21
201.42787
 31
0.0
  0
LINE
  5
BA2
  8
0
 62
     0
 10
73.701134
 20
197.82787
 30
0.0
 11
70.101134
 21
201.42787
 31
0.0
  0
LINE
  5
BA3
  8
0
 62
     0
 10
70.872707
 20
197.82787
 30
0.0
 11
67.272707
 21
201.42787
 31
0.0
  0
LINE
  5
BA4
  8
0
 62
     0
 10
68.044279
 20
197.82787
 30
0.0
 11
64.444279
 21
201.42787
 31
0.0
  0
LINE
  5
BA5
  8
0
 62
     0
 10
65.215852
 20
197.82787
 30
0.0
 11
61.615852
 21
201.42787
 31
0.0
  0
LINE
  5
BA6
  8
0
 62
     0
 10
62.387425
 20
197.82787
 30
0.0
 11
58.787425
 21
201.42787
 31
0.0
  0
LINE
  5
BA7
  8
0
 62
     0
 10
59.558998
 20
197.82787
 30
0.0
 11
58.585303
 21
198.801565
 31
0.0
  0
LINE
  5
BA8
  8
0
 62
     0
 10
58.458998
 20
198.92787
 30
0.0
 11
56.185303
 21
201.201565
 31
0.0
  0
ENDBLK
  5
BAA
  8
SCHRAFFIERT
  0
BLOCK
  8
SCHRAFFIERT
  2
*X12
 70
     1
 10
0.0
 20
0.0
 30
0.0
  3
*X12
  1

  0
LINE
  5
BAC
  8
0
 62
     0
 10
84.501134
 20
187.02787
 30
0.0
 11
81.401396
 21
190.127608
 31
0.0
  0
LINE
  5
BAD
  8
0
 62
     0
 10
87.329561
 20
187.02787
 30
0.0
 11
84.229861
 21
190.12757
 31
0.0
  0
LINE
  5
BAE
  8
0
 62
     0
 10
90.157988
 20
187.02787
 30
0.0
 11
87.058327
 21
190.127531
 31
0.0
  0
LINE
  5
BAF
  8
0
 62
     0
 10
92.986415
 20
187.02787
 30
0.0
 11
89.886793
 21
190.127493
 31
0.0
  0
LINE
  5
BB0
  8
0
 62
     0
 10
95.814842
 20
187.02787
 30
0.0
 11
92.715258
 21
190.127454
 31
0.0
  0
LINE
  5
BB1
  8
0
 62
     0
 10
98.643269
 20
187.02787
 30
0.0
 11
95.543724
 21
190.127415
 31
0.0
  0
LINE
  5
BB2
  8
0
 62
     0
 10
101.471696
 20
187.02787
 30
0.0
 11
98.37219
 21
190.127377
 31
0.0
  0
LINE
  5
BB3
  8
0
 62
     0
 10
106.500124
 20
184.82787
 30
0.0
 11
104.585303
 21
186.74269
 31
0.0
  0
LINE
  5
BB4
  8
0
 62
     0
 10
104.300124
 20
187.02787
 30
0.0
 11
101.200656
 21
190.127338
 31
0.0
  0
LINE
  5
BB5
  8
0
 62
     0
 10
108.585303
 20
185.571118
 30
0.0
 11
104.029121
 21
190.1273
 31
0.0
  0
LINE
  5
BB6
  8
0
 62
     0
 10
108.585303
 20
188.399545
 30
0.0
 11
106.857587
 21
190.127261
 31
0.0
  0
LINE
  5
BB7
  8
0
 62
     0
 10
81.672707
 20
187.02787
 30
0.0
 11
78.57293
 21
190.127647
 31
0.0
  0
LINE
  5
BB8
  8
0
 62
     0
 10
78.844279
 20
187.02787
 30
0.0
 11
75.744464
 21
190.127685
 31
0.0
  0
LINE
  5
BB9
  8
0
 62
     0
 10
76.015852
 20
187.02787
 30
0.0
 11
72.915999
 21
190.127724
 31
0.0
  0
LINE
  5
BBA
  8
0
 62
     0
 10
73.187425
 20
187.02787
 30
0.0
 11
70.087533
 21
190.127763
 31
0.0
  0
LINE
  5
BBB
  8
0
 62
     0
 10
70.358998
 20
187.02787
 30
0.0
 11
67.259067
 21
190.127801
 31
0.0
  0
LINE
  5
BBC
  8
0
 62
     0
 10
62.185303
 20
195.201565
 30
0.0
 11
61.958998
 21
195.42787
 31
0.0
  0
LINE
  5
BBD
  8
0
 62
     0
 10
67.530571
 20
187.02787
 30
0.0
 11
64.430602
 21
190.12784
 31
0.0
  0
LINE
  5
BBE
  8
0
 62
     0
 10
62.185303
 20
192.373138
 30
0.0
 11
59.130571
 21
195.42787
 31
0.0
  0
LINE
  5
BBF
  8
0
 62
     0
 10
64.702144
 20
187.02787
 30
0.0
 11
58.585303
 21
193.144711
 31
0.0
  0
LINE
  5
BC0
  8
0
 62
     0
 10
61.873717
 20
187.02787
 30
0.0
 11
58.585303
 21
190.316284
 31
0.0
  0
LINE
  5
BC1
  8
0
 62
     0
 10
59.04529
 20
187.02787
 30
0.0
 11
58.585303
 21
187.487856
 31
0.0
  0
ENDBLK
  5
BC3
  8
SCHRAFFIERT
  0
BLOCK
  8
SCHRAFFIERT
  2
*X13
 70
     1
 10
0.0
 20
0.0
 30
0.0
  3
*X13
  1

  0
LINE
  5
BC5
  8
0
 62
     0
 10
59.760008
 20
177.82787
 30
0.0
 11
58.585303
 21
179.002575
 31
0.0
  0
LINE
  5
BC6
  8
0
 62
     0
 10
62.185303
 20
178.231002
 30
0.0
 11
59.788435
 21
180.62787
 31
0.0
  0
ENDBLK
  5
BC8
  8
SCHRAFFIERT
  0
BLOCK
  8
0
  2
A$C1EBE3CF3
 70
     0
 10
0.0
 20
0.0
 30
0.0
  3
A$C1EBE3CF3
  1

  0
LINE
  5
D93
  8
BEM1
  6
BYBLOCK
 10
46.818395
 20
42.419101
 30
0.0
 11
46.818395
 21
66.986113
 31
0.0
  0
LINE
  5
D94
  8
MITTE
 10
48.218395
 20
0.0
 30
0.0
 11
48.218395
 21
57.719101
 31
0.0
  0
LINE
  5
D95
  8
BEM1
  6
BYBLOCK
 10
5.25
 20
43.819101
 30
0.0
 11
5.25
 21
48.713315
 31
0.0
  0
LINE
  5
D96
  8
BEM1
  6
BYBLOCK
 10
37.418395
 20
36.619101
 30
0.0
 11
37.418395
 21
74.986113
 31
0.0
  0
TEXT
  5
D97
  8
BEM1
  6
BYBLOCK
 62
     3
 10
3.5
 20
25.737764
 30
0.0
 40
3.5
  1
3.60 [0.142"]
 50
90.0
 41
0.7
 51
15.0
  0
CIRCLE
  5
D98
  8
MITTE
 10
48.218395
 20
33.119101
 30
0.0
 40
23.6
  0
CIRCLE
  5
D99
  8
05
 10
37.418395
 20
34.519101
 30
0.0
 40
1.6
  0
LINE
  5
D9A
  8
MITTE
 10
34.418395
 20
34.519101
 30
0.0
 11
40.418395
 21
34.519101
 31
0.0
  0
LINE
  5
D9B
  8
BEM1
  6
BYBLOCK
 10
44.718395
 20
40.319101
 30
0.0
 11
14.87003
 21
40.319101
 31
0.0
  0
LINE
  5
D9C
  8
MITTE
 10
15.646594
 20
33.119101
 30
0.0
 11
72.818395
 21
33.119101
 31
0.0
  0
LINE
  5
D9D
  8
BEM1
  6
BYBLOCK
 10
7.199661
 20
33.119101
 30
0.0
 11
4.45
 21
33.119101
 31
0.0
  0
SOLID
  5
D9E
  8
BEM1
  6
BYBLOCK
 10
5.833333
 20
43.819101
 30
0.0
 11
4.666666
 21
43.819101
 31
0.0
 12
5.25
 22
40.319101
 32
0.0
 13
5.25
 23
40.319101
 33
0.0
  0
LINE
  5
D9F
  8
BEM1
  6
BYBLOCK
 10
11.816157
 20
40.319101
 30
0.0
 11
4.45
 21
40.319101
 31
0.0
  0
SOLID
  5
DA0
  8
BEM1
  6
BYBLOCK
 10
5.833333
 20
29.619101
 30
0.0
 11
4.666666
 21
29.619101
 31
0.0
 12
5.25
 22
33.119101
 32
0.0
 13
5.25
 23
33.119101
 33
0.0
  0
LINE
  5
DA1
  8
BEM1
  6
BYBLOCK
 10
13.25
 20
34.519101
 30
0.0
 11
13.25
 21
8.984582
 31
0.0
  0
TEXT
  5
DA2
  8
BEM1
  6
BYBLOCK
 62
     3
 10
11.5
 20
9.287893
 30
0.0
 40
3.5
  1
0.70 [0.028"]
 50
90.0
 41
0.7
 51
15.0
  0
LINE
  5
DA3
  8
BEM1
  6
BYBLOCK
 10
24.118395
 20
33.119101
 30
0.0
 11
12.37014
 21
33.119101
 31
0.0
  0
LINE
  5
DA4
  8
BEM1
  6
BYBLOCK
 10
35.318395
 20
34.519101
 30
0.0
 11
12.45
 21
34.519101
 31
0.0
  0
SOLID
  5
DA5
  8
BEM1
  6
BYBLOCK
 10
13.833333
 20
38.019101
 30
0.0
 11
12.666666
 21
38.019101
 31
0.0
 12
13.25
 22
34.519101
 32
0.0
 13
13.25
 23
34.519101
 33
0.0
  0
LINE
  5
DA6
  8
BEM1
  6
BYBLOCK
 10
5.25
 20
40.319101
 30
0.0
 11
5.25
 21
25.165195
 31
0.0
  0
SOLID
  5
DA7
  8
BEM1
  6
BYBLOCK
 10
13.833333
 20
29.619101
 30
0.0
 11
12.666666
 21
29.619101
 31
0.0
 12
13.25
 22
33.119101
 32
0.0
 13
13.25
 23
33.119101
 33
0.0
  0
POINT
  5
DA8
  8
BEM1
  6
BYBLOCK
 10
5.25
 20
33.119101
 30
0.0
  0
LINE
  5
DA9
  8
BEM1
  6
BYBLOCK
 10
13.25
 20
38.019101
 30
0.0
 11
13.25
 21
41.519101
 31
0.0
  0
LINE
  5
DAA
  8
MITTE
 10
37.418395
 20
31.519101
 30
0.0
 11
37.418395
 21
37.519101
 31
0.0
  0
POINT
  5
DAB
  8
BEM1
  6
BYBLOCK
 10
37.418395
 20
36.119101
 30
0.0
  0
POINT
  5
DAC
  8
BEM1
  6
BYBLOCK
 10
35.818395
 20
34.519101
 30
0.0
  0
LINE
  5
DAD
  8
BEM1
  6
BYBLOCK
 10
70.145461
 20
14.920489
 30
0.0
 11
98.819006
 21
14.920489
 31
0.0
  0
LINE
  5
DAE
  8
BEM1
  6
BYBLOCK
 10
47.977157
 20
39.215801
 30
0.0
 11
70.145461
 21
14.920489
 31
0.0
  0
TEXT
  5
DAF
  8
SCHRAFFIERT
 10
48.472443
 20
42.188067
 30
0.0
 40
4.6
  1
1+
  7
HELV
  0
TEXT
  5
DB0
  8
SCHRAFFIERT
 10
38.270278
 20
35.015171
 30
0.0
 40
4.6
  1
1-
  7
HELV
  0
CIRCLE
  5
DB1
  8
05
 10
46.818395
 20
40.319101
 30
0.0
 40
1.6
  0
LINE
  5
DB2
  8
MITTE
 10
43.818395
 20
40.319101
 30
0.0
 11
49.818395
 21
40.319101
 31
0.0
  0
POINT
  5
DB3
  8
BEM1
  6
BYBLOCK
 10
45.218395
 20
40.319101
 30
0.0
  0
LINE
  5
DB4
  8
MITTE
 10
46.818395
 20
37.319101
 30
0.0
 11
46.818395
 21
43.319101
 31
0.0
  0
SOLID
  5
DB5
  8
BEM1
  6
BYBLOCK
 10
50.730133
 20
37.064119
 30
0.0
 11
49.870348
 21
36.275525
 31
0.0
 12
47.934456
 22
39.249175
 32
0.0
 13
47.934456
 23
39.249175
 33
0.0
  0
POINT
  5
DB6
  8
BEM1
  6
BYBLOCK
 10
46.818395
 20
41.919101
 30
0.0
  0
TEXT
  5
DB7
  8
BEM1
  6
BYBLOCK
 62
     3
 10
70.59711
 20
16.170651
 30
0.0
 40
3.5
  1
%%c1.60 [0.063"]
 41
0.7
 51
15.0
  0
LINE
  5
DB8
  8
BEM1
  6
BYBLOCK
 10
72.318395
 20
33.119101
 30
0.0
 11
73.157642
 21
33.119101
 31
0.0
  0
TEXT
  5
DB9
  8
035
 10
12.777169
 20
108.053365
 30
0.0
 40
3.5
  1
Print-Bohrplan (Bestückungsseite)
  7
ARIAL
  0
TEXT
  5
DBA
  8
035
 10
12.777169
 20
102.053365
 30
0.0
 40
3.0
  1
PCB-Layout (component side)
  7
ARIAL
  0
TEXT
  5
DBB
  8
BEM1
  6
BYBLOCK
 62
     3
 10
30.272824
 20
75.936113
 30
0.0
 40
3.5
  1
5.40 [0.213"]
 41
0.7
 51
15.0
  0
LINE
  5
DBC
  8
BEM1
  6
BYBLOCK
 10
48.218395
 20
74.186113
 30
0.0
 11
30.418395
 21
74.186113
 31
0.0
  0
SOLID
  5
DBD
  8
BEM1
  6
BYBLOCK
 10
33.918395
 20
73.60278
 30
0.0
 11
33.918395
 21
74.769447
 31
0.0
 12
37.418395
 22
74.186113
 32
0.0
 13
37.418395
 23
74.186113
 33
0.0
  0
POINT
  5
DBE
  8
BEM1
  6
BYBLOCK
 10
37.418395
 20
74.186113
 30
0.0
  0
TEXT
  5
DBF
  8
BEM1
  6
BYBLOCK
 62
     3
 10
47.116597
 20
67.936113
 30
0.0
 40
3.5
  1
0.70 [0.028"]
 41
0.7
 51
15.0
  0
LINE
  5
DC0
  8
BEM1
  6
BYBLOCK
 10
51.718395
 20
66.186113
 30
0.0
 11
71.024722
 21
66.186113
 31
0.0
  0
LINE
  5
DC1
  8
BEM1
  6
BYBLOCK
 10
48.218395
 20
57.219101
 30
0.0
 11
48.218395
 21
66.970962
 31
0.0
  0
LINE
  5
DC2
  8
BEM1
  6
BYBLOCK
 10
48.218395
 20
66.186113
 30
0.0
 11
41.561836
 21
66.186113
 31
0.0
  0
SOLID
  5
DC3
  8
BEM1
  6
BYBLOCK
 10
43.318395
 20
65.60278
 30
0.0
 11
43.318395
 21
66.769447
 31
0.0
 12
46.818395
 22
66.186113
 32
0.0
 13
46.818395
 23
66.186113
 33
0.0
  0
SOLID
  5
DC4
  8
BEM1
  6
BYBLOCK
 10
51.718395
 20
65.60278
 30
0.0
 11
51.718395
 21
66.769447
 31
0.0
 12
48.218395
 22
66.186113
 32
0.0
 13
48.218395
 23
66.186113
 33
0.0
  0
LINE
  5
DC5
  8
BEM1
  6
BYBLOCK
 10
51.718395
 20
74.186113
 30
0.0
 11
54.802192
 21
74.186113
 31
0.0
  0
SOLID
  5
DC6
  8
BEM1
  6
BYBLOCK
 10
51.718395
 20
73.60278
 30
0.0
 11
51.718395
 21
74.769447
 31
0.0
 12
48.218395
 22
74.186113
 32
0.0
 13
48.218395
 23
74.186113
 33
0.0
  0
LINE
  5
DC7
  8
BEM1
  6
BYBLOCK
 10
48.218395
 20
72.063816
 30
0.0
 11
48.218395
 21
74.986113
 31
0.0
  0
ENDBLK
  5
DC9
  8
0
  0
ENDSEC
  0
SECTION
  2
ENTITIES
  0
INSERT
  5
6E9
  8
SCHRAFFIERT
  2
TOLERANZ
 10
0.0
 20
0.0
 30
0.0
  0
ARC
  5
6EA
  8
05
 10
81.535263
 20
204.513745
 30
0.0
 40
13.0
 50
184.702156
 51
354.070826
  0
POLYLINE
  5
6EB
  8
05
 66
     1
 10
0.0
 20
0.0
 30
0.0
  0
VERTEX
  5
F4F
  8
05
 10
68.553255
 20
205.874688
 30
0.0
  0
VERTEX
  5
F50
  8
05
 10
68.358418
 20
205.318386
 30
0.0
  0
VERTEX
  5
F51
  8
05
 10
68.192721
 20
204.573253
 30
0.0
  0
VERTEX
  5
F52
  8
05
 10
68.414032
 20
203.732839
 30
0.0
  0
VERTEX
  5
F53
  8
05
 10
68.822681
 20
203.027467
 30
0.0
  0
VERTEX
  5
F54
  8
05
 10
69.230233
 20
202.620191
 30
0.0
  0
VERTEX
  5
F55
  8
05
 10
69.624197
 20
202.201887
 30
0.0
  0
VERTEX
  5
F56
  8
05
 10
70.494073
 20
201.297828
 30
0.0
  0
SEQEND
  5
F57
  8
05
  0
LINE
  5
6F5
  8
05
 10
68.553255
 20
205.874688
 30
0.0
 11
69.497044
 21
205.544138
 31
0.0
  0
POLYLINE
  5
6F6
  8
05
 66
     1
 10
0.0
 20
0.0
 30
0.0
  0
VERTEX
  5
F58
  8
05
 10
69.497044
 20
205.544138
 30
0.0
  0
VERTEX
  5
F59
  8
05
 10
69.321744
 20
205.043619
 30
0.0
  0
VERTEX
  5
F5A
  8
05
 10
69.221572
 20
204.593152
 30
0.0
  0
VERTEX
  5
F5B
  8
05
 10
69.346787
 20
204.117659
 30
0.0
  0
VERTEX
  5
F5C
  8
05
 10
69.622258
 20
203.642167
 30
0.0
  0
VERTEX
  5
F5D
  8
05
 10
69.947816
 20
203.316829
 30
0.0
  0
VERTEX
  5
F5E
  8
05
 10
70.118087
 20
203.136039
 30
0.0
  0
SEQEND
  5
F5F
  8
05
  0
POLYLINE
  5
6FF
  8
05
 66
     1
 10
0.0
 20
0.0
 30
0.0
  0
VERTEX
  5
F60
  8
05
 10
93.573483
 20
203.483351
 30
0.0
  0
VERTEX
  5
F61
  8
05
 10
93.748783
 20
203.98387
 30
0.0
  0
VERTEX
  5
F62
  8
05
 10
93.848955
 20
204.434337
 30
0.0
  0
VERTEX
  5
F63
  8
05
 10
93.72374
 20
204.90983
 30
0.0
  0
VERTEX
  5
F64
  8
05
 10
93.448269
 20
205.385323
 30
0.0
  0
VERTEX
  5
F65
  8
05
 10
93.122711
 20
205.71066
 30
0.0
  0
VERTEX
  5
F66
  8
05
 10
92.95244
 20
205.891451
 30
0.0
  0
SEQEND
  5
F67
  8
05
  0
ARC
  5
708
  8
05
 10
81.535263
 20
204.513745
 30
0.0
 40
13.0
 50
4.702156
 51
174.070826
  0
LINE
  5
709
  8
05
 10
94.517272
 20
203.152802
 30
0.0
 11
93.573483
 21
203.483351
 31
0.0
  0
POLYLINE
  5
70A
  8
05
 66
     1
 10
0.0
 20
0.0
 30
0.0
  0
VERTEX
  5
F68
  8
05
 10
94.517272
 20
203.152802
 30
0.0
  0
VERTEX
  5
F69
  8
05
 10
94.712109
 20
203.709103
 30
0.0
  0
VERTEX
  5
F6A
  8
05
 10
94.877806
 20
204.454236
 30
0.0
  0
VERTEX
  5
F6B
  8
05
 10
94.656495
 20
205.29465
 30
0.0
  0
VERTEX
  5
F6C
  8
05
 10
94.247846
 20
206.000022
 30
0.0
  0
VERTEX
  5
F6D
  8
05
 10
93.840294
 20
206.407298
 30
0.0
  0
VERTEX
  5
F6E
  8
05
 10
93.44633
 20
206.825602
 30
0.0
  0
VERTEX
  5
F6F
  8
05
 10
92.576454
 20
207.729661
 30
0.0
  0
SEQEND
  5
F70
  8
05
  0
LINE
  5
714
  8
05
 10
80.17432
 20
199.335579
 30
0.0
 11
80.50487
 21
198.391791
 31
0.0
  0
POLYLINE
  5
715
  8
05
 66
     1
 10
0.0
 20
0.0
 30
0.0
  0
VERTEX
  5
F71
  8
05
 10
80.17432
 20
199.335579
 30
0.0
  0
VERTEX
  5
F72
  8
05
 10
80.730622
 20
199.530417
 30
0.0
  0
VERTEX
  5
F73
  8
05
 10
81.475755
 20
199.696114
 30
0.0
  0
VERTEX
  5
F74
  8
05
 10
82.316169
 20
199.474803
 30
0.0
  0
VERTEX
  5
F75
  8
05
 10
83.021541
 20
199.066153
 30
0.0
  0
VERTEX
  5
F76
  8
05
 10
83.428817
 20
198.658601
 30
0.0
  0
VERTEX
  5
F77
  8
05
 10
83.847121
 20
198.264637
 30
0.0
  0
VERTEX
  5
F78
  8
05
 10
84.115326
 20
198.006573
 30
0.0
  0
SEQEND
  5
F79
  8
05
  0
POLYLINE
  5
71F
  8
05
 66
     1
 10
0.0
 20
0.0
 30
0.0
  0
VERTEX
  5
F7A
  8
05
 10
80.50487
 20
198.391791
 30
0.0
  0
VERTEX
  5
F7B
  8
05
 10
81.005389
 20
198.567091
 30
0.0
  0
VERTEX
  5
F7C
  8
05
 10
81.455856
 20
198.667262
 30
0.0
  0
VERTEX
  5
F7D
  8
05
 10
81.931349
 20
198.542048
 30
0.0
  0
VERTEX
  5
F7E
  8
05
 10
82.406841
 20
198.266576
 30
0.0
  0
VERTEX
  5
F7F
  8
05
 10
82.732179
 20
197.941019
 30
0.0
  0
VERTEX
  5
F80
  8
05
 10
83.017349
 20
197.672442
 30
0.0
  0
SEQEND
  5
F81
  8
05
  0
POLYLINE
  5
728
  8
05
 66
     1
 10
0.0
 20
0.0
 30
0.0
  0
VERTEX
  5
F82
  8
05
 10
82.565657
 20
210.635699
 30
0.0
  0
VERTEX
  5
F83
  8
05
 10
82.065138
 20
210.460399
 30
0.0
  0
VERTEX
  5
F84
  8
05
 10
81.614671
 20
210.360227
 30
0.0
  0
VERTEX
  5
F85
  8
05
 10
81.139178
 20
210.485441
 30
0.0
  0
VERTEX
  5
F86
  8
05
 10
80.663685
 20
210.760913
 30
0.0
  0
VERTEX
  5
F87
  8
05
 10
80.338348
 20
211.08647
 30
0.0
  0
VERTEX
  5
F88
  8
05
 10
80.053178
 20
211.355047
 30
0.0
  0
SEQEND
  5
F89
  8
05
  0
POLYLINE
  5
731
  8
05
 66
     1
 10
0.0
 20
0.0
 30
0.0
  0
VERTEX
  5
F8A
  8
05
 10
82.896206
 20
209.69191
 30
0.0
  0
VERTEX
  5
F8B
  8
05
 10
82.339905
 20
209.497073
 30
0.0
  0
VERTEX
  5
F8C
  8
05
 10
81.594772
 20
209.331376
 30
0.0
  0
VERTEX
  5
F8D
  8
05
 10
80.754358
 20
209.552687
 30
0.0
  0
VERTEX
  5
F8E
  8
05
 10
80.048986
 20
209.961336
 30
0.0
  0
VERTEX
  5
F8F
  8
05
 10
79.64171
 20
210.368888
 30
0.0
  0
VERTEX
  5
F90
  8
05
 10
79.223406
 20
210.762852
 30
0.0
  0
VERTEX
  5
F91
  8
05
 10
78.955201
 20
211.020916
 30
0.0
  0
SEQEND
  5
F92
  8
05
  0
LINE
  5
73B
  8
05
 10
82.896206
 20
209.69191
 30
0.0
 11
82.565657
 21
210.635699
 31
0.0
  0
LINE
  5
73C
  8
05
 10
91.891421
 20
209.513745
 30
0.0
 11
93.535263
 21
209.513745
 31
0.0
  0
LINE
  5
73D
  8
05
 10
69.535263
 20
199.513745
 30
0.0
 11
71.179106
 21
199.513745
 31
0.0
  0
CIRCLE
  5
73E
  8
05
 10
81.535263
 20
204.513745
 30
0.0
 40
17.6
  0
LINE
  5
73F
  8
05
 10
76.570387
 20
201.713745
 30
0.0
 11
86.50014
 21
201.713745
 31
0.0
  0
LINE
  5
740
  8
05
 10
76.570387
 20
207.313745
 30
0.0
 11
86.50014
 21
207.313745
 31
0.0
  0
LINE
  5
741
  8
05
 10
89.666991
 20
212.645473
 30
0.0
 11
90.232677
 21
213.211158
 31
0.0
  0
ARC
  5
742
  8
05
 10
81.535263
 20
204.513745
 30
0.0
 40
12.3
 50
203.985414
 51
336.014586
  0
ARC
  5
743
  8
05
 10
81.535263
 20
204.513745
 30
0.0
 40
12.3
 50
23.985414
 51
156.014586
  0
ARC
  5
744
  8
05
 10
81.535263
 20
204.513745
 30
0.0
 40
11.5
 50
334.228538
 51
45.0
  0
ARC
  5
745
  8
05
 10
81.535263
 20
204.513745
 30
0.0
 40
11.5
 50
154.228538
 51
225.0
  0
LINE
  5
746
  8
05
 10
91.891421
 20
199.513745
 30
0.0
 11
93.535263
 21
199.513745
 31
0.0
  0
LINE
  5
747
  8
05
 10
69.535263
 20
209.513745
 30
0.0
 11
71.179106
 21
209.513745
 31
0.0
  0
LINE
  5
748
  8
05
 10
72.83785
 20
195.816331
 30
0.0
 11
73.403535
 21
196.382017
 31
0.0
  0
ARC
  5
749
  8
05
 10
81.535263
 20
204.513745
 30
0.0
 40
5.7
 50
150.0
 51
235.847085
  0
ARC
  5
74A
  8
05
 10
81.535263
 20
204.513745
 30
0.0
 40
7.0
 50
242.797106
 51
330.0
  0
ARC
  5
74B
  8
05
 10
81.535263
 20
204.513745
 30
0.0
 40
7.0
 50
62.797106
 51
150.0
  0
ARC
  5
74C
  8
05
 10
81.535263
 20
204.513745
 30
0.0
 40
5.7
 50
330.0
 51
55.847085
  0
LINE
  5
74D
  8
05
 10
86.471608
 20
201.663745
 30
0.0
 11
87.597441
 21
201.013745
 31
0.0
  0
LINE
  5
74E
  8
05
 10
75.473086
 20
208.013745
 30
0.0
 11
76.598919
 21
207.363745
 31
0.0
  0
LINE
  5
74F
  8
05
 10
84.735263
 20
209.230735
 30
0.0
 11
84.735263
 21
210.739498
 31
0.0
  0
LINE
  5
750
  8
05
 10
78.335263
 20
198.287992
 30
0.0
 11
78.335263
 21
199.796754
 31
0.0
  0
LINE
  5
751
  8
05
 10
85.335263
 20
187.328868
 30
0.0
 11
85.335263
 21
184.878063
 31
0.0
  0
LINE
  5
752
  8
05
 10
77.735263
 20
187.328868
 30
0.0
 11
77.735263
 21
184.878063
 31
0.0
  0
ARC
  5
753
  8
05
 10
81.535263
 20
204.513745
 30
0.0
 40
17.6
 50
282.468867
 51
70.758811
  0
ARC
  5
754
  8
05
 10
81.535263
 20
204.513745
 30
0.0
 40
17.6
 50
109.241189
 51
257.531133
  0
ARC
  5
755
  8
05
 10
81.535263
 20
204.513745
 30
0.0
 40
20.0
 50
259.047216
 51
280.952784
  0
ARC
  5
756
  8
05
 10
81.535263
 20
204.513745
 30
0.0
 40
20.0
 50
73.142044
 51
106.857956
  0
LINE
  5
757
  8
05
 10
87.335263
 20
221.130604
 30
0.0
 11
87.335263
 21
223.654278
 31
0.0
  0
LINE
  5
758
  8
05
 10
75.735263
 20
221.130604
 30
0.0
 11
75.735263
 21
223.654278
 31
0.0
  0
CIRCLE
  5
759
  8
05
 10
81.535263
 20
204.513745
 30
0.0
 40
23.6
  0
LINE
  5
75A
  8
MITTE
 10
81.535263
 20
235.514742
 30
0.0
 11
81.535263
 21
173.512747
 31
0.0
  0
LINE
  5
75B
  8
MITTE
 10
50.534266
 20
204.513745
 30
0.0
 11
112.536261
 21
204.513745
 31
0.0
  0
LINE
  5
75C
  8
05
 10
55.535263
 20
228.513745
 30
0.0
 11
55.535263
 21
180.513745
 31
0.0
  0
ARC
  5
75D
  8
05
 10
62.535263
 20
180.513745
 30
0.0
 40
7.0
 50
180.0
 51
270.0
  0
LINE
  5
75E
  8
05
 10
62.535263
 20
173.513745
 30
0.0
 11
100.535263
 21
173.513745
 31
0.0
  0
ARC
  5
75F
  8
05
 10
100.535263
 20
180.513745
 30
0.0
 40
7.0
 50
270.0
 51
0.0
  0
LINE
  5
760
  8
05
 10
107.535263
 20
180.513745
 30
0.0
 11
107.535263
 21
228.513745
 31
0.0
  0
ARC
  5
761
  8
05
 10
100.535263
 20
228.513745
 30
0.0
 40
7.0
 50
0.0
 51
90.0
  0
LINE
  5
762
  8
05
 10
100.535263
 20
235.513745
 30
0.0
 11
62.535263
 21
235.513745
 31
0.0
  0
ARC
  5
763
  8
05
 10
62.535263
 20
228.513745
 30
0.0
 40
7.0
 50
90.0
 51
180.0
  0
LINE
  5
764
  8
05
 10
79.535263
 20
234.713745
 30
0.0
 11
83.535263
 21
234.713745
 31
0.0
  0
LINE
  5
765
  8
05
 10
83.535263
 20
234.713745
 30
0.0
 11
81.535263
 21
230.713745
 31
0.0
  0
LINE
  5
766
  8
05
 10
81.535263
 20
230.713745
 30
0.0
 11
79.535263
 21
234.713745
 31
0.0
  0
LINE
  5
767
  8
MITTE
 10
70.535263
 20
228.513745
 30
0.0
 11
54.535263
 21
228.513745
 31
0.0
  0
LINE
  5
768
  8
MITTE
 10
62.535263
 20
236.513745
 30
0.0
 11
62.535263
 21
220.513745
 31
0.0
  0
LINE
  5
769
  8
MITTE
 10
92.535263
 20
180.513745
 30
0.0
 11
108.535263
 21
180.513745
 31
0.0
  0
LINE
  5
76A
  8
MITTE
 10
100.535263
 20
172.513745
 30
0.0
 11
100.535263
 21
188.513745
 31
0.0
  0
CIRCLE
  5
76B
  8
05
 10
100.535263
 20
228.513745
 30
0.0
 40
5.0
  0
POLYLINE
  5
76C
  8
035
 66
     1
 10
0.0
 20
0.0
 30
0.0
  0
VERTEX
  5
F93
  8
035
 10
103.422015
 20
226.847078
 30
0.0
 42
0.291473
  0
VERTEX
  5
F94
  8
035
 10
103.26577
 20
230.425666
 30
0.0
 42
1.0
  0
VERTEX
  5
F95
  8
035
 10
102.583144
 20
229.947686
 30
0.0
 42
-0.246577
  0
VERTEX
  5
F96
  8
035
 10
102.878378
 20
227.642072
 30
0.0
  0
VERTEX
  5
F97
  8
035
 10
102.00655
 20
228.145422
 30
0.0
 42
1.0
  0
VERTEX
  5
F98
  8
035
 10
101.589884
 20
227.423734
 30
0.0
  0
VERTEX
  5
F99
  8
035
 10
102.852838
 20
226.694567
 30
0.0
 42
0.414214
  0
VERTEX
  5
F9A
  8
035
 10
103.422015
 20
226.847078
 30
0.0
  0
SEQEND
  5
F9B
  8
035
  0
POLYLINE
  5
776
  8
035
 66
     1
 10
0.0
 20
0.0
 30
0.0
 70
     1
  0
VERTEX
  5
F9C
  8
035
 10
102.20193
 20
231.400496
 30
0.0
 42
0.291473
  0
VERTEX
  5
F9D
  8
035
 10
98.623342
 20
231.244251
 30
0.0
 42
1.0
  0
VERTEX
  5
F9E
  8
035
 10
99.101322
 20
230.561625
 30
0.0
 42
-0.111311
  0
VERTEX
  5
F9F
  8
035
 10
100.118597
 20
230.978778
 30
0.0
  0
VERTEX
  5
FA0
  8
035
 10
100.118597
 20
225.597078
 30
0.0
 42
1.0
  0
VERTEX
  5
FA1
  8
035
 10
100.95193
 20
225.597078
 30
0.0
  0
VERTEX
  5
FA2
  8
035
 10
100.95193
 20
230.978778
 30
0.0
 42
-0.089274
  0
VERTEX
  5
FA3
  8
035
 10
101.785263
 20
230.678808
 30
0.0
 42
1.0
  0
SEQEND
  5
FA4
  8
035
  0
POLYLINE
  5
780
  8
035
 66
     1
 10
0.0
 20
0.0
 30
0.0
  0
VERTEX
  5
FA5
  8
035
 10
97.648512
 20
230.180411
 30
0.0
 42
0.291473
  0
VERTEX
  5
FA6
  8
035
 10
97.804757
 20
226.601823
 30
0.0
 42
1.0
  0
VERTEX
  5
FA7
  8
035
 10
98.487383
 20
227.079804
 30
0.0
 42
-0.246577
  0
VERTEX
  5
FA8
  8
035
 10
98.192149
 20
229.385417
 30
0.0
  0
VERTEX
  5
FA9
  8
035
 10
99.063976
 20
228.882067
 30
0.0
 42
1.0
  0
VERTEX
  5
FAA
  8
035
 10
99.480643
 20
229.603755
 30
0.0
  0
VERTEX
  5
FAB
  8
035
 10
98.217689
 20
230.332922
 30
0.0
 42
0.414214
  0
VERTEX
  5
FAC
  8
035
 10
97.648512
 20
230.180411
 30
0.0
  0
SEQEND
  5
FAD
  8
035
  0
LINE
  5
78A
  8
05
 10
242.555292
 20
227.713745
 30
0.0
 11
242.555292
 21
181.313745
 31
0.0
  0
LINE
  5
78B
  8
MITTE
 10
174.695292
 20
204.513745
 30
0.0
 11
242.555292
 21
204.513745
 31
0.0
  0
LINE
  5
78C
  8
05
 10
228.555292
 20
235.513745
 30
0.0
 11
228.555292
 21
173.513745
 31
0.0
  0
LINE
  5
78D
  8
05
 10
202.155292
 20
228.113745
 30
0.0
 11
228.555292
 21
228.113745
 31
0.0
  0
LINE
  5
78E
  8
05
 10
190.155292
 20
180.913745
 30
0.0
 11
228.555292
 21
180.913745
 31
0.0
  0
LINE
  5
78F
  8
05
 10
237.555292
 20
234.713745
 30
0.0
 11
237.555292
 21
174.313745
 31
0.0
  0
LINE
  5
790
  8
05
 10
237.555292
 20
228.113745
 30
0.0
 11
242.155292
 21
228.113745
 31
0.0
  0
LINE
  5
791
  8
05
 10
237.555292
 20
180.913745
 30
0.0
 11
242.155292
 21
180.913745
 31
0.0
  0
LINE
  5
792
  8
05
 10
228.555292
 20
235.513745
 30
0.0
 11
236.755292
 21
235.513745
 31
0.0
  0
LINE
  5
793
  8
05
 10
228.555292
 20
173.513745
 30
0.0
 11
236.755292
 21
173.513745
 31
0.0
  0
ARC
  5
794
  8
05
 10
242.155292
 20
227.713745
 30
0.0
 40
0.4
 50
0.0
 51
90.0
  0
ARC
  5
795
  8
05
 10
242.155292
 20
181.313745
 30
0.0
 40
0.4
 50
270.0
 51
0.0
  0
ARC
  5
796
  8
05
 10
236.755292
 20
174.313745
 30
0.0
 40
0.8
 50
270.0
 51
0.0
  0
ARC
  5
797
  8
05
 10
236.755292
 20
234.713745
 30
0.0
 40
0.8
 50
360.0
 51
90.0
  0
LINE
  5
798
  8
MITTE
 10
318.625407
 20
172.513745
 30
0.0
 11
318.625407
 21
188.513745
 31
0.0
  0
LINE
  5
799
  8
MITTE
 10
326.625407
 20
180.513745
 30
0.0
 11
310.625407
 21
180.513745
 31
0.0
  0
LINE
  5
79A
  8
MITTE
 10
356.625407
 20
236.513745
 30
0.0
 11
356.625407
 21
220.513745
 31
0.0
  0
LINE
  5
79B
  8
MITTE
 10
348.625407
 20
228.513745
 30
0.0
 11
364.625407
 21
228.513745
 31
0.0
  0
ARC
  5
79C
  8
05
 10
356.625407
 20
228.513745
 30
0.0
 40
7.0
 50
0.0
 51
90.0
  0
LINE
  5
79D
  8
05
 10
318.625407
 20
235.513745
 30
0.0
 11
356.625407
 21
235.513745
 31
0.0
  0
ARC
  5
79E
  8
05
 10
318.625407
 20
228.513745
 30
0.0
 40
7.0
 50
90.0
 51
180.0
  0
LINE
  5
79F
  8
05
 10
311.625407
 20
180.513745
 30
0.0
 11
311.625407
 21
228.513745
 31
0.0
  0
ARC
  5
7A0
  8
05
 10
318.625407
 20
180.513745
 30
0.0
 40
7.0
 50
180.0
 51
270.0
  0
LINE
  5
7A1
  8
05
 10
356.625407
 20
173.513745
 30
0.0
 11
318.625407
 21
173.513745
 31
0.0
  0
ARC
  5
7A2
  8
05
 10
356.625407
 20
180.513745
 30
0.0
 40
7.0
 50
270.0
 51
0.0
  0
LINE
  5
7A3
  8
05
 10
363.625407
 20
228.513745
 30
0.0
 11
363.625407
 21
180.513745
 31
0.0
  0
CIRCLE
  5
7A4
  8
05
 10
337.625407
 20
204.513745
 30
0.0
 40
23.6
  0
LINE
  5
7A5
  8
035
 10
190.155292
 20
199.713745
 30
0.0
 11
178.555292
 21
199.713745
 31
0.0
  0
LINE
  5
7A6
  8
035
 10
190.155292
 20
209.313745
 30
0.0
 11
178.555292
 21
209.313745
 31
0.0
  0
LINE
  5
7A7
  8
035
 10
186.155292
 20
196.813745
 30
0.0
 11
176.955292
 21
196.813745
 31
0.0
  0
LINE
  5
7A8
  8
035
 10
186.155292
 20
197.813745
 30
0.0
 11
176.955292
 21
197.813745
 31
0.0
  0
LINE
  5
7A9
  8
035
 10
178.555292
 20
197.213745
 30
0.0
 11
176.555292
 21
197.213745
 31
0.0
  0
LINE
  5
7AA
  8
035
 10
178.555292
 20
197.413745
 30
0.0
 11
176.555292
 21
197.413745
 31
0.0
  0
LINE
  5
7AB
  8
035
 10
176.555292
 20
197.213745
 30
0.0
 11
176.555292
 21
197.413745
 31
0.0
  0
LINE
  5
7AC
  8
035
 10
178.555292
 20
196.813745
 30
0.0
 11
178.555292
 21
197.813745
 31
0.0
  0
LINE
  5
7AD
  8
035
 10
176.555292
 20
197.213745
 30
0.0
 11
176.955292
 21
196.813745
 31
0.0
  0
LINE
  5
7AE
  8
035
 10
176.555292
 20
197.413745
 30
0.0
 11
176.955292
 21
197.813745
 31
0.0
  0
LINE
  5
7AF
  8
035
 10
176.555292
 20
211.613745
 30
0.0
 11
176.955292
 21
211.213745
 31
0.0
  0
LINE
  5
7B0
  8
035
 10
176.555292
 20
211.813745
 30
0.0
 11
176.955292
 21
212.213745
 31
0.0
  0
LINE
  5
7B1
  8
035
 10
178.555292
 20
212.213745
 30
0.0
 11
178.555292
 21
211.213745
 31
0.0
  0
LINE
  5
7B2
  8
035
 10
176.555292
 20
211.813745
 30
0.0
 11
176.555292
 21
211.613745
 31
0.0
  0
LINE
  5
7B3
  8
035
 10
178.555292
 20
211.613745
 30
0.0
 11
176.555292
 21
211.613745
 31
0.0
  0
LINE
  5
7B4
  8
035
 10
178.555292
 20
211.813745
 30
0.0
 11
176.555292
 21
211.813745
 31
0.0
  0
LINE
  5
7B5
  8
035
 10
186.155292
 20
211.213745
 30
0.0
 11
176.955292
 21
211.213745
 31
0.0
  0
LINE
  5
7B6
  8
035
 10
186.155292
 20
212.213745
 30
0.0
 11
176.955292
 21
212.213745
 31
0.0
  0
INSERT
  5
7B7
  8
BEM1
  2
TOLERANZ
 10
0.0
 20
0.0
 30
0.0
  0
SOLID
  5
7C0
  8
BEM1
 10
53.697855
 20
174.813702
 30
0.0
 11
54.383628
 21
173.869866
 31
0.0
 12
56.872249
 22
176.399104
 32
0.0
 13
56.872249
 23
176.399104
 33
0.0
  0
LINE
  5
7C1
  8
BEM1
 10
56.872249
 20
176.399104
 30
0.0
 11
51.209234
 21
172.284463
 31
0.0
  0
LINE
  5
7C2
  8
BEM1
 10
51.209234
 20
172.284463
 30
0.0
 11
23.989309
 21
172.284463
 31
0.0
  0
TEXT
  5
7C3
  8
BEM1
 62
     3
 10
24.194382
 20
173.581736
 30
0.0
 40
3.5
  1
R3.50 [0.138"]
 41
0.7
 51
15.0
  0
LINE
  5
7C5
  8
035
 10
340.425407
 20
212.113745
 30
0.0
 11
340.259722
 21
211.713745
 31
0.0
  0
LINE
  5
7C6
  8
035
 10
340.259722
 20
211.713745
 30
0.0
 11
340.259722
 21
211.513745
 31
0.0
  0
LINE
  5
7C7
  8
035
 10
340.259722
 20
211.513745
 30
0.0
 11
340.425407
 21
211.113745
 31
0.0
  0
LINE
  5
7C8
  8
035
 10
334.991092
 20
211.513745
 30
0.0
 11
334.825407
 21
211.113745
 31
0.0
  0
LINE
  5
7C9
  8
035
 10
334.825407
 20
212.113745
 30
0.0
 11
334.991092
 21
211.713745
 31
0.0
  0
LINE
  5
7CA
  8
035
 10
334.991092
 20
211.713745
 30
0.0
 11
334.991092
 21
211.513745
 31
0.0
  0
LINE
  5
7CB
  8
035
 10
332.825407
 20
211.713745
 30
0.0
 11
342.425407
 21
211.713745
 31
0.0
  0
LINE
  5
7CC
  8
035
 10
332.825407
 20
211.513745
 30
0.0
 11
342.425407
 21
211.513745
 31
0.0
  0
LINE
  5
7CD
  8
035
 10
332.825407
 20
212.113745
 30
0.0
 11
332.825407
 21
211.113745
 31
0.0
  0
LINE
  5
7CE
  8
035
 10
342.425407
 20
212.113745
 30
0.0
 11
342.425407
 21
211.113745
 31
0.0
  0
LINE
  5
7CF
  8
035
 10
332.825407
 20
211.113745
 30
0.0
 11
342.425407
 21
211.113745
 31
0.0
  0
LINE
  5
7D0
  8
035
 10
332.825407
 20
212.113745
 30
0.0
 11
342.425407
 21
212.113745
 31
0.0
  0
LINE
  5
7D1
  8
05
 10
320.125407
 20
196.913745
 30
0.0
 11
317.941657
 21
196.913745
 31
0.0
  0
LINE
  5
7D2
  8
VERDECKT
 10
320.625407
 20
197.013745
 30
0.0
 11
320.625407
 21
196.913745
 31
0.0
  0
LINE
  5
7D3
  8
VERDECKT
 10
320.625407
 20
196.913745
 30
0.0
 11
320.125407
 21
196.913745
 31
0.0
  0
LINE
  5
7D4
  8
05
 10
320.625407
 20
199.113745
 30
0.0
 11
320.625407
 21
197.013745
 31
0.0
  0
LINE
  5
7D5
  8
05
 10
317.228103
 20
199.113745
 30
0.0
 11
320.625407
 21
199.113745
 31
0.0
  0
ARC
  5
7D6
  8
05
 10
337.625407
 20
204.513745
 30
0.0
 40
21.1
 50
201.111839
 51
194.828353
  0
TEXT
  5
7D7
  8
05
 10
338.099281
 20
186.474008
 30
0.0
 40
8.0
  1
+
  7
UNIV
  0
LINE
  5
7D9
  8
05
 10
320.125407
 20
195.413745
 30
0.0
 11
320.125407
 21
197.013745
 31
0.0
  0
LINE
  5
7DA
  8
05
 10
320.125407
 20
197.013745
 30
0.0
 11
320.125407
 21
196.713745
 31
0.0
  0
LINE
  5
7DB
  8
05
 10
331.125407
 20
187.013745
 30
0.0
 11
329.525407
 21
187.013745
 31
0.0
  0
LINE
  5
7DC
  8
05
 10
355.125407
 20
197.013745
 30
0.0
 11
355.125407
 21
195.413745
 31
0.0
  0
LINE
  5
7DD
  8
05
 10
331.125407
 20
222.013745
 30
0.0
 11
329.525407
 21
222.013745
 31
0.0
  0
LINE
  5
7DE
  8
05
 10
345.725407
 20
187.013745
 30
0.0
 11
344.125407
 21
187.013745
 31
0.0
  0
LINE
  5
7DF
  8
05
 10
345.725407
 20
222.013745
 30
0.0
 11
344.125407
 21
222.013745
 31
0.0
  0
LINE
  5
7E0
  8
05
 10
320.125407
 20
213.613745
 30
0.0
 11
320.125407
 21
212.013745
 31
0.0
  0
LINE
  5
7E1
  8
05
 10
355.125407
 20
213.613745
 30
0.0
 11
355.125407
 21
212.013745
 31
0.0
  0
TEXT
  5
7E2
  8
05
 10
357.992102
 20
199.982903
 30
0.0
 40
8.0
  1
1-
 50
90.0
  7
UNIV
  0
TEXT
  5
7E3
  8
05
 10
325.427976
 20
200.055452
 30
0.0
 40
8.0
  1
2-
 50
90.0
  7
UNIV
  0
LINE
  5
7E4
  8
05
 10
329.525407
 20
197.013745
 30
0.0
 11
329.525407
 21
187.013745
 31
0.0
  0
LINE
  5
7E5
  8
05
 10
329.525407
 20
195.413745
 30
0.0
 11
320.125407
 21
195.413745
 31
0.0
  0
LINE
  5
7E6
  8
05
 10
329.525407
 20
197.013745
 30
0.0
 11
320.125407
 21
197.013745
 31
0.0
  0
LINE
  5
7E7
  8
05
 10
329.525407
 20
212.013745
 30
0.0
 11
329.525407
 21
197.013745
 31
0.0
  0
LINE
  5
7E8
  8
05
 10
329.525407
 20
212.013745
 30
0.0
 11
320.125407
 21
212.013745
 31
0.0
  0
LINE
  5
7E9
  8
05
 10
329.525407
 20
213.613745
 30
0.0
 11
320.125407
 21
213.613745
 31
0.0
  0
LINE
  5
7EA
  8
05
 10
329.525407
 20
222.013745
 30
0.0
 11
329.525407
 21
212.013745
 31
0.0
  0
LINE
  5
7EB
  8
05
 10
345.725407
 20
195.413745
 30
0.0
 11
345.725407
 21
187.013745
 31
0.0
  0
LINE
  5
7EC
  8
05
 10
345.725407
 20
212.013745
 30
0.0
 11
345.725407
 21
197.013745
 31
0.0
  0
LINE
  5
7ED
  8
05
 10
345.725407
 20
213.613745
 30
0.0
 11
355.125407
 21
213.613745
 31
0.0
  0
LINE
  5
7EE
  8
05
 10
345.725407
 20
195.413745
 30
0.0
 11
355.125407
 21
195.413745
 31
0.0
  0
LINE
  5
7EF
  8
05
 10
345.725407
 20
197.013745
 30
0.0
 11
355.125407
 21
197.013745
 31
0.0
  0
LINE
  5
7F0
  8
05
 10
345.725407
 20
212.013745
 30
0.0
 11
355.125407
 21
212.013745
 31
0.0
  0
TEXT
  5
7F1
  8
05
 10
331.516698
 20
186.140963
 30
0.0
 40
8.0
  1
2
  7
UNIV
  0
TEXT
  5
7F2
  8
05
 10
332.582324
 20
215.826848
 30
0.0
 40
8.0
  1
1+
  7
UNIV
  0
LINE
  5
7F3
  8
05
 10
344.125407
 20
203.513745
 30
0.0
 11
344.125407
 21
187.013745
 31
0.0
  0
LINE
  5
7F5
  8
05
 10
345.725407
 20
222.013745
 30
0.0
 11
345.725407
 21
213.613745
 31
0.0
  0
LINE
  5
7F6
  8
05
 10
344.125407
 20
222.013745
 30
0.0
 11
344.125407
 21
205.513745
 31
0.0
  0
LINE
  5
7F7
  8
05
 10
331.125407
 20
222.013745
 30
0.0
 11
331.125407
 21
205.513745
 31
0.0
  0
LINE
  5
7F8
  8
05
 10
331.125407
 20
203.513745
 30
0.0
 11
344.125407
 21
203.513745
 31
0.0
  0
LINE
  5
7F9
  8
05
 10
331.125407
 20
205.513745
 30
0.0
 11
344.125407
 21
205.513745
 31
0.0
  0
LINE
  5
7FA
  8
MITTE
 10
311.625407
 20
204.513745
 30
0.0
 11
363.625407
 21
204.513745
 31
0.0
  0
LINE
  5
7FB
  8
MITTE
 10
337.625407
 20
173.513745
 30
0.0
 11
337.625407
 21
235.513745
 31
0.0
  0
LINE
  5
7FC
  8
035
 10
326.425407
 20
200.313745
 30
0.0
 11
326.425407
 21
208.713745
 31
0.0
  0
LINE
  5
7FD
  8
035
 10
325.925407
 20
199.713745
 30
0.0
 11
325.925407
 21
209.313745
 31
0.0
  0
LINE
  5
7FE
  8
035
 10
326.925407
 20
199.713745
 30
0.0
 11
326.925407
 21
209.313745
 31
0.0
  0
LINE
  5
7FF
  8
035
 10
325.925407
 20
209.313745
 30
0.0
 11
326.925407
 21
209.313745
 31
0.0
  0
LINE
  5
800
  8
035
 10
325.925407
 20
199.713745
 30
0.0
 11
326.925407
 21
199.713745
 31
0.0
  0
LINE
  5
801
  8
035
 10
326.525407
 20
199.713745
 30
0.0
 11
326.525407
 21
209.313745
 31
0.0
  0
LINE
  5
802
  8
035
 10
326.325407
 20
199.713745
 30
0.0
 11
326.325407
 21
209.313745
 31
0.0
  0
LINE
  5
803
  8
035
 10
326.325407
 20
201.87943
 30
0.0
 11
326.525407
 21
201.87943
 31
0.0
  0
LINE
  5
804
  8
035
 10
325.925407
 20
201.713745
 30
0.0
 11
326.325407
 21
201.87943
 31
0.0
  0
LINE
  5
805
  8
035
 10
326.525407
 20
201.87943
 30
0.0
 11
326.925407
 21
201.713745
 31
0.0
  0
LINE
  5
806
  8
035
 10
326.525407
 20
207.148059
 30
0.0
 11
326.925407
 21
207.313745
 31
0.0
  0
LINE
  5
807
  8
035
 10
326.325407
 20
207.148059
 30
0.0
 11
326.525407
 21
207.148059
 31
0.0
  0
LINE
  5
808
  8
035
 10
325.925407
 20
207.313745
 30
0.0
 11
326.325407
 21
207.148059
 31
0.0
  0
LINE
  5
809
  8
035
 10
332.825407
 20
196.913745
 30
0.0
 11
342.425407
 21
196.913745
 31
0.0
  0
LINE
  5
80A
  8
035
 10
332.825407
 20
197.913745
 30
0.0
 11
342.425407
 21
197.913745
 31
0.0
  0
LINE
  5
80B
  8
035
 10
342.425407
 20
196.913745
 30
0.0
 11
342.425407
 21
197.913745
 31
0.0
  0
LINE
  5
80C
  8
035
 10
332.825407
 20
196.913745
 30
0.0
 11
332.825407
 21
197.913745
 31
0.0
  0
LINE
  5
80D
  8
035
 10
332.825407
 20
197.513745
 30
0.0
 11
342.425407
 21
197.513745
 31
0.0
  0
LINE
  5
80E
  8
035
 10
332.825407
 20
197.313745
 30
0.0
 11
342.425407
 21
197.313745
 31
0.0
  0
LINE
  5
80F
  8
035
 10
334.991092
 20
197.313745
 30
0.0
 11
334.991092
 21
197.513745
 31
0.0
  0
LINE
  5
810
  8
035
 10
334.825407
 20
196.913745
 30
0.0
 11
334.991092
 21
197.313745
 31
0.0
  0
LINE
  5
811
  8
035
 10
334.991092
 20
197.513745
 30
0.0
 11
334.825407
 21
197.913745
 31
0.0
  0
LINE
  5
812
  8
035
 10
340.259722
 20
197.513745
 30
0.0
 11
340.425407
 21
197.913745
 31
0.0
  0
LINE
  5
813
  8
035
 10
340.259722
 20
197.313745
 30
0.0
 11
340.259722
 21
197.513745
 31
0.0
  0
LINE
  5
814
  8
035
 10
340.425407
 20
196.913745
 30
0.0
 11
340.259722
 21
197.313745
 31
0.0
  0
LINE
  5
815
  8
035
 10
349.325407
 20
207.313745
 30
0.0
 11
348.925407
 21
207.148059
 31
0.0
  0
LINE
  5
816
  8
035
 10
348.925407
 20
207.148059
 30
0.0
 11
348.725407
 21
207.148059
 31
0.0
  0
LINE
  5
817
  8
035
 10
348.725407
 20
207.148059
 30
0.0
 11
348.325407
 21
207.313745
 31
0.0
  0
LINE
  5
818
  8
035
 10
348.725407
 20
201.87943
 30
0.0
 11
348.325407
 21
201.713745
 31
0.0
  0
LINE
  5
819
  8
035
 10
349.325407
 20
201.713745
 30
0.0
 11
348.925407
 21
201.87943
 31
0.0
  0
LINE
  5
81A
  8
035
 10
348.925407
 20
201.87943
 30
0.0
 11
348.725407
 21
201.87943
 31
0.0
  0
LINE
  5
81B
  8
035
 10
348.925407
 20
199.713745
 30
0.0
 11
348.925407
 21
209.313745
 31
0.0
  0
LINE
  5
81C
  8
035
 10
348.725407
 20
199.713745
 30
0.0
 11
348.725407
 21
209.313745
 31
0.0
  0
LINE
  5
81D
  8
035
 10
349.325407
 20
199.713745
 30
0.0
 11
348.325407
 21
199.713745
 31
0.0
  0
LINE
  5
81E
  8
035
 10
349.325407
 20
209.313745
 30
0.0
 11
348.325407
 21
209.313745
 31
0.0
  0
LINE
  5
81F
  8
035
 10
348.325407
 20
199.713745
 30
0.0
 11
348.325407
 21
209.313745
 31
0.0
  0
LINE
  5
820
  8
035
 10
349.325407
 20
199.713745
 30
0.0
 11
349.325407
 21
209.313745
 31
0.0
  0
LINE
  5
821
  8
035
 10
348.825407
 20
200.313745
 30
0.0
 11
348.825407
 21
208.713745
 31
0.0
  0
LINE
  5
822
  8
05
 10
190.155292
 20
222.013745
 30
0.0
 11
186.155292
 21
222.013745
 31
0.0
  0
LINE
  5
823
  8
05
 10
190.155292
 20
213.613745
 30
0.0
 11
186.155292
 21
213.613745
 31
0.0
  0
LINE
  5
824
  8
05
 10
190.155292
 20
212.013745
 30
0.0
 11
186.155292
 21
212.013745
 31
0.0
  0
LINE
  5
825
  8
05
 10
190.155292
 20
197.013745
 30
0.0
 11
186.155292
 21
197.013745
 31
0.0
  0
LINE
  5
826
  8
05
 10
190.155292
 20
195.413745
 30
0.0
 11
186.155292
 21
195.413745
 31
0.0
  0
LINE
  5
827
  8
05
 10
190.155292
 20
187.013745
 30
0.0
 11
186.155292
 21
187.013745
 31
0.0
  0
LINE
  5
828
  8
05
 10
190.155292
 20
227.533736
 30
0.0
 11
190.155292
 21
180.913745
 31
0.0
  0
LINE
  5
829
  8
05
 10
186.155292
 20
222.013745
 30
0.0
 11
186.155292
 21
209.313745
 31
0.0
  0
LINE
  5
82A
  8
035
 10
176.555292
 20
207.313745
 30
0.0
 11
176.555292
 21
206.013745
 31
0.0
  0
LINE
  5
82B
  8
035
 10
178.555292
 20
199.713745
 30
0.0
 11
176.555292
 21
201.713745
 31
0.0
  0
LINE
  5
82C
  8
035
 10
178.555292
 20
209.313745
 30
0.0
 11
176.555292
 21
207.313745
 31
0.0
  0
LINE
  5
82D
  8
035
 10
176.555292
 20
206.013745
 30
0.0
 11
178.555292
 21
204.513745
 31
0.0
  0
LINE
  5
82E
  8
035
 10
178.555292
 20
204.513745
 30
0.0
 11
176.555292
 21
203.013745
 31
0.0
  0
LINE
  5
82F
  8
035
 10
176.555292
 20
203.013745
 30
0.0
 11
176.555292
 21
201.713745
 31
0.0
  0
CIRCLE
  5
830
  8
035
 10
182.555292
 20
204.513745
 30
0.0
 40
1.2
  0
LINE
  5
831
  8
035
 10
179.120977
 20
209.313745
 30
0.0
 11
176.955292
 21
207.148059
 31
0.0
  0
LINE
  5
832
  8
035
 10
176.955292
 20
207.148059
 30
0.0
 11
176.955292
 21
205.713745
 31
0.0
  0
LINE
  5
833
  8
035
 10
176.955292
 20
203.313745
 30
0.0
 11
176.955292
 21
201.87943
 31
0.0
  0
LINE
  5
834
  8
035
 10
179.120977
 20
199.713745
 30
0.0
 11
176.955292
 21
201.87943
 31
0.0
  0
LINE
  5
835
  8
035
 10
176.955292
 20
207.148059
 30
0.0
 11
176.555292
 21
207.313745
 31
0.0
  0
LINE
  5
836
  8
035
 10
176.955292
 20
201.87943
 30
0.0
 11
176.555292
 21
201.713745
 31
0.0
  0
LINE
  5
837
  8
05
 10
186.155292
 20
199.713745
 30
0.0
 11
186.155292
 21
187.013745
 31
0.0
  0
LINE
  5
83B
  8
05
 10
347.625407
 20
206.513745
 30
0.0
 11
347.625407
 21
202.513745
 31
0.0
  0
LINE
  5
83C
  8
05
 10
346.425407
 20
206.513745
 30
0.0
 11
346.425407
 21
202.513745
 31
0.0
  0
LINE
  5
83D
  8
05
 10
346.425407
 20
206.513745
 30
0.0
 11
347.825407
 21
206.513745
 31
0.0
  0
LINE
  5
83E
  8
05
 10
346.425407
 20
202.513745
 30
0.0
 11
347.825407
 21
202.513745
 31
0.0
  0
LINE
  5
83F
  8
05
 10
328.825407
 20
202.513745
 30
0.0
 11
327.425407
 21
202.513745
 31
0.0
  0
LINE
  5
840
  8
05
 10
328.825407
 20
206.513745
 30
0.0
 11
327.425407
 21
206.513745
 31
0.0
  0
LINE
  5
841
  8
05
 10
328.825407
 20
206.513745
 30
0.0
 11
328.825407
 21
202.513745
 31
0.0
  0
LINE
  5
842
  8
05
 10
327.625407
 20
206.513745
 30
0.0
 11
327.625407
 21
202.513745
 31
0.0
  0
LINE
  5
843
  8
05
 10
335.625407
 20
210.613745
 30
0.0
 11
335.625407
 21
209.213745
 31
0.0
  0
LINE
  5
844
  8
05
 10
335.625407
 20
209.213745
 30
0.0
 11
339.625407
 21
209.213745
 31
0.0
  0
LINE
  5
845
  8
05
 10
339.625407
 20
209.213745
 30
0.0
 11
339.625407
 21
210.613745
 31
0.0
  0
LINE
  5
846
  8
05
 10
339.625407
 20
210.413745
 30
0.0
 11
335.625407
 21
210.413745
 31
0.0
  0
LINE
  5
847
  8
05
 10
339.625407
 20
198.613745
 30
0.0
 11
335.625407
 21
198.613745
 31
0.0
  0
LINE
  5
848
  8
05
 10
339.625407
 20
199.813745
 30
0.0
 11
339.625407
 21
198.413745
 31
0.0
  0
LINE
  5
849
  8
05
 10
335.625407
 20
199.813745
 30
0.0
 11
339.625407
 21
199.813745
 31
0.0
  0
LINE
  5
84A
  8
05
 10
335.625407
 20
198.413745
 30
0.0
 11
335.625407
 21
199.813745
 31
0.0
  0
LINE
  5
84B
  8
05
 10
339.625407
 20
210.613745
 30
0.0
 11
335.625407
 21
210.613745
 31
0.0
  0
LINE
  5
84C
  8
05
 10
327.425407
 20
206.513745
 30
0.0
 11
327.425407
 21
202.513745
 31
0.0
  0
LINE
  5
84D
  8
05
 10
347.825407
 20
206.513745
 30
0.0
 11
347.825407
 21
202.513745
 31
0.0
  0
LINE
  5
84E
  8
05
 10
339.625407
 20
198.413745
 30
0.0
 11
335.625407
 21
198.413745
 31
0.0
  0
POINT
  5
854
  8
BEM1
  6
BYBLOCK
 10
242.555292
 20
227.713745
 30
0.0
  0
POINT
  5
855
  8
BEM1
  6
BYBLOCK
 10
186.155292
 20
222.013745
 30
0.0
  0
POINT
  5
85D
  8
BEM1
  6
BYBLOCK
 10
186.155292
 20
187.013745
 30
0.0
  0
POINT
  5
85E
  8
BEM1
  6
BYBLOCK
 10
228.555292
 20
173.513745
 30
0.0
  0
LINE
  5
860
  8
BEM1
  6
BYBLOCK
 10
66.035263
 20
245.793182
 30
0.0
 11
97.035263
 21
245.793182
 31
0.0
  0
SOLID
  5
861
  8
BEM1
  6
BYBLOCK
 10
66.035263
 20
245.209849
 30
0.0
 11
66.035263
 21
246.376515
 31
0.0
 12
62.535263
 22
245.793182
 32
0.0
 13
62.535263
 23
245.793182
 33
0.0
  0
SOLID
  5
862
  8
BEM1
  6
BYBLOCK
 10
97.035263
 20
245.209849
 30
0.0
 11
97.035263
 21
246.376515
 31
0.0
 12
100.535263
 22
245.793182
 32
0.0
 13
100.535263
 23
245.793182
 33
0.0
  0
TEXT
  5
863
  8
BEM1
  6
BYBLOCK
 62
     3
 10
68.352109
 20
247.543182
 30
0.0
 40
3.5
  1
19.00 [0.748"]
 41
0.7
 51
15.0
  0
POINT
  5
864
  8
BEM1
  6
BYBLOCK
 10
62.535263
 20
228.513745
 30
0.0
  0
POINT
  5
865
  8
BEM1
  6
BYBLOCK
 10
100.535263
 20
245.793182
 30
0.0
  0
LINE
  5
866
  8
BEM1
  6
BYBLOCK
 10
55.535263
 20
229.013745
 30
0.0
 11
55.535263
 21
257.013731
 31
0.0
  0
LINE
  5
867
  8
BEM1
  6
BYBLOCK
 10
107.535263
 20
229.013745
 30
0.0
 11
107.535263
 21
234.239715
 31
0.0
  0
LINE
  5
868
  8
BEM1
  6
BYBLOCK
 10
59.035263
 20
256.213731
 30
0.0
 11
104.035263
 21
256.213731
 31
0.0
  0
SOLID
  5
869
  8
BEM1
  6
BYBLOCK
 10
59.035263
 20
255.630398
 30
0.0
 11
59.035263
 21
256.797065
 31
0.0
 12
55.535263
 22
256.213731
 32
0.0
 13
55.535263
 23
256.213731
 33
0.0
  0
SOLID
  5
86A
  8
BEM1
  6
BYBLOCK
 10
104.035263
 20
255.630398
 30
0.0
 11
104.035263
 21
256.797065
 31
0.0
 12
107.535263
 22
256.213731
 32
0.0
 13
107.535263
 23
256.213731
 33
0.0
  0
TEXT
  5
86B
  8
BEM1
  6
BYBLOCK
 62
     3
 10
67.585046
 20
257.963731
 30
0.0
 40
3.5
  1
26.00 [1.024"]
 41
0.7
 51
15.0
  0
POINT
  5
86C
  8
BEM1
  6
BYBLOCK
 10
55.535263
 20
228.513745
 30
0.0
  0
POINT
  5
86D
  8
BEM1
  6
BYBLOCK
 10
107.535263
 20
228.513745
 30
0.0
  0
POINT
  5
86E
  8
BEM1
  6
BYBLOCK
 10
107.535263
 20
256.213731
 30
0.0
  0
LINE
  5
86F
  8
BEM1
  6
BYBLOCK
 10
120.611394
 20
225.013745
 30
0.0
 11
120.611394
 21
184.013745
 31
0.0
  0
SOLID
  5
870
  8
BEM1
  6
BYBLOCK
 10
121.194727
 20
225.013745
 30
0.0
 11
120.028061
 21
225.013745
 31
0.0
 12
120.611394
 22
228.513745
 32
0.0
 13
120.611394
 23
228.513745
 33
0.0
  0
SOLID
  5
871
  8
BEM1
  6
BYBLOCK
 10
121.194727
 20
184.013745
 30
0.0
 11
120.028061
 21
184.013745
 31
0.0
 12
120.611394
 22
180.513745
 32
0.0
 13
120.611394
 23
180.513745
 33
0.0
  0
TEXT
  5
872
  8
BEM1
  6
BYBLOCK
 62
     3
 10
119.253187
 20
191.041896
 30
0.0
 40
3.5
  1
24.00 [0.945"]
 50
90.0
 41
0.7
 51
15.0
  0
POINT
  5
873
  8
BEM1
  6
BYBLOCK
 10
62.535263
 20
228.513745
 30
0.0
  0
POINT
  5
874
  8
BEM1
  6
BYBLOCK
 10
120.611394
 20
180.513745
 30
0.0
  0
LINE
  5
875
  8
BEM1
  6
BYBLOCK
 10
101.035263
 20
235.513745
 30
0.0
 11
132.467365
 21
235.513745
 31
0.0
  0
LINE
  5
876
  8
BEM1
  6
BYBLOCK
 10
101.035263
 20
173.513745
 30
0.0
 11
132.467365
 21
173.513745
 31
0.0
  0
LINE
  5
877
  8
BEM1
  6
BYBLOCK
 10
131.667365
 20
232.013745
 30
0.0
 11
131.667365
 21
177.013745
 31
0.0
  0
SOLID
  5
878
  8
BEM1
  6
BYBLOCK
 10
132.250699
 20
232.013745
 30
0.0
 11
131.084032
 21
232.013745
 31
0.0
 12
131.667365
 22
235.513745
 32
0.0
 13
131.667365
 23
235.513745
 33
0.0
  0
SOLID
  5
879
  8
BEM1
  6
BYBLOCK
 10
132.250699
 20
177.013745
 30
0.0
 11
131.084032
 21
177.013745
 31
0.0
 12
131.667365
 22
173.513745
 32
0.0
 13
131.667365
 23
173.513745
 33
0.0
  0
TEXT
  5
87A
  8
BEM1
  6
BYBLOCK
 62
     3
 10
129.917365
 20
191.302344
 30
0.0
 40
3.5
  1
31.00 [1.221"]
 50
90.0
 41
0.7
 51
15.0
  0
POINT
  5
87B
  8
BEM1
  6
BYBLOCK
 10
100.535263
 20
235.513745
 30
0.0
  0
POINT
  5
87C
  8
BEM1
  6
BYBLOCK
 10
100.535263
 20
173.513745
 30
0.0
  0
POINT
  5
87D
  8
BEM1
  6
BYBLOCK
 10
131.667365
 20
173.513745
 30
0.0
  0
POINT
  5
87F
  8
BEM1
  6
BYBLOCK
 10
190.155292
 20
180.913745
 30
0.0
  0
POINT
  5
884
  8
BEM1
  6
BYBLOCK
 10
228.555292
 20
173.513745
 30
0.0
  0
POINT
  5
885
  8
BEM1
  6
BYBLOCK
 10
237.555292
 20
174.313745
 30
0.0
  0
LINE
  5
887
  8
BEM1
  6
BYBLOCK
 10
242.655292
 20
228.113745
 30
0.0
 11
255.006753
 21
228.113745
 31
0.0
  0
LINE
  5
888
  8
BEM1
  6
BYBLOCK
 10
242.655292
 20
180.913745
 30
0.0
 11
255.006753
 21
180.913745
 31
0.0
  0
LINE
  5
889
  8
BEM1
  6
BYBLOCK
 10
254.206753
 20
224.613745
 30
0.0
 11
254.206753
 21
184.413745
 31
0.0
  0
SOLID
  5
88A
  8
BEM1
  6
BYBLOCK
 10
254.790086
 20
224.613745
 30
0.0
 11
253.623419
 21
224.613745
 31
0.0
 12
254.206753
 22
228.113745
 32
0.0
 13
254.206753
 23
228.113745
 33
0.0
  0
SOLID
  5
88B
  8
BEM1
  6
BYBLOCK
 10
254.790086
 20
184.413745
 30
0.0
 11
253.623419
 21
184.413745
 31
0.0
 12
254.206753
 22
180.913745
 32
0.0
 13
254.206753
 23
180.913745
 33
0.0
  0
TEXT
  5
88C
  8
BEM1
  6
BYBLOCK
 62
     3
 10
252.456753
 20
189.337096
 30
0.0
 40
3.5
  1
%%c23.60 [0.929"]
 50
90.0
 41
0.7
 51
15.0
  0
POINT
  5
88D
  8
BEM1
  6
BYBLOCK
 10
242.155292
 20
228.113745
 30
0.0
  0
POINT
  5
88E
  8
BEM1
  6
BYBLOCK
 10
242.155292
 20
180.913745
 30
0.0
  0
POINT
  5
88F
  8
BEM1
  6
BYBLOCK
 10
254.206753
 20
180.913745
 30
0.0
  0
LINE
  5
890
  8
BEM1
  6
BYBLOCK
 10
237.555292
 20
235.213745
 30
0.0
 11
237.555292
 21
245.877269
 31
0.0
  0
LINE
  5
891
  8
BEM1
  6
BYBLOCK
 10
242.555292
 20
228.213745
 30
0.0
 11
242.555292
 21
245.938155
 31
0.0
  0
LINE
  5
892
  8
BEM1
  6
BYBLOCK
 10
237.555292
 20
244.928041
 30
0.0
 11
250.806591
 21
244.928041
 31
0.0
  0
LINE
  5
893
  8
BEM1
  6
BYBLOCK
 10
234.055292
 20
244.928041
 30
0.0
 11
226.786036
 21
244.928041
 31
0.0
  0
SOLID
  5
894
  8
BEM1
  6
BYBLOCK
 10
246.055292
 20
244.344707
 30
0.0
 11
246.055292
 21
245.511374
 31
0.0
 12
242.555292
 22
244.928041
 32
0.0
 13
242.555292
 23
244.928041
 33
0.0
  0
SOLID
  5
895
  8
BEM1
  6
BYBLOCK
 10
234.055292
 20
244.344707
 30
0.0
 11
234.055292
 21
245.511374
 31
0.0
 12
237.555292
 22
244.928041
 32
0.0
 13
237.555292
 23
244.928041
 33
0.0
  0
TEXT
  5
896
  8
BEM1
  6
BYBLOCK
 62
     3
 10
228.432265
 20
246.678041
 30
0.0
 40
3.5
  1
2.50 [0.098"]
 41
0.7
 51
15.0
  0
POINT
  5
897
  8
BEM1
  6
BYBLOCK
 10
237.555292
 20
234.713745
 30
0.0
  0
POINT
  5
898
  8
BEM1
  6
BYBLOCK
 10
242.555292
 20
227.713745
 30
0.0
  0
POINT
  5
899
  8
BEM1
  6
BYBLOCK
 10
242.555292
 20
244.928041
 30
0.0
  0
POLYLINE
  5
89A
  8
RAHMEN
 62
     7
 66
     1
 10
0.0
 20
0.0
 30
0.0
 70
     1
  0
VERTEX
  5
FAE
  8
RAHMEN
 62
     7
 10
0.0
 20
0.0
 30
0.0
  0
VERTEX
  5
FAF
  8
RAHMEN
 62
     7
 10
420.0
 20
0.0
 30
0.0
  0
VERTEX
  5
FB0
  8
RAHMEN
 62
     7
 10
420.0
 20
297.0
 30
0.0
  0
VERTEX
  5
FB1
  8
RAHMEN
 62
     7
 10
0.0
 20
297.0
 30
0.0
  0
SEQEND
  5
FB2
  8
RAHMEN
 62
     7
  0
POLYLINE
  5
8A0
  8
RAHMEN
 66
     1
 10
0.0
 20
0.0
 30
0.0
 70
     1
  0
VERTEX
  5
FB3
  8
RAHMEN
 10
10.0
 20
10.0
 30
0.0
  0
VERTEX
  5
FB4
  8
RAHMEN
 10
410.0
 20
10.0
 30
0.0
  0
VERTEX
  5
FB5
  8
RAHMEN
 10
410.0
 20
287.0
 30
0.0
  0
VERTEX
  5
FB6
  8
RAHMEN
 10
10.0
 20
287.0
 30
0.0
  0
SEQEND
  5
FB7
  8
RAHMEN
  0
LINE
  5
8A6
  8
05
 62
     7
 10
230.0
 20
0.0
 30
0.0
 11
230.0
 21
2.0
 31
0.0
  0
LINE
  5
8A7
  8
05
 62
     7
 10
20.0
 20
0.0
 30
0.0
 11
20.0
 21
2.0
 31
0.0
  0
LINE
  5
8A8
  8
05
 62
     7
 10
230.0
 20
295.0
 30
0.0
 11
230.0
 21
297.0
 31
0.0
  0
LINE
  5
8A9
  8
05
 62
     7
 10
20.0
 20
295.0
 30
0.0
 11
20.0
 21
297.0
 31
0.0
  0
INSERT
  5
8AA
  8
05
 66
     1
  2
ZKOPF
 10
410.0
 20
10.0
 30
0.0
  0
ATTRIB
  5
8AB
  8
0
 62
     4
 10
396.797619
 20
47.0
 30
0.0
 40
2.5
  1
Loretz
  7
SCRIPTS
 72
     1
 11
401.5
 21
47.0
 31
0.0
  2
NAME
 70
     0
  0
ATTRIB
  5
8AC
  8
0
 62
     4
 10
380.104167
 20
47.0
 30
0.0
 40
2.5
  1
28.08.97
 41
0.7
 51
15.0
 72
     1
 11
385.5
 21
47.0
 31
0.0
  2
DATE
 70
     0
  0
ATTRIB
  5
8AD
  8
0
 62
     4
 10
329.5
 20
46.0
 30
0.0
 40
2.5
  1

 41
0.7
 51
15.0
 72
     1
 11
329.5
 21
46.0
 31
0.0
  2
WERKSTOFF
 70
     0
  0
ATTRIB
  5
8AE
  8
0
 62
     2
 10
306.916667
 20
22.5
 30
0.0
 40
5.0
  1
NL4MP-1
 41
0.7
 51
15.0
 72
     1
 11
318.0
 21
22.5
 31
0.0
  2
BENENNUNG
 70
     0
  0
ATTRIB
  5
8AF
  8
0
 62
     3
 10
312.384543
 20
31.082191
 30
0.0
 40
3.5
  1
NL-Serie
 41
0.7
 51
15.0
 72
     1
 11
320.959543
 21
31.082191
 31
0.0
  2
TEIL
 70
     0
  0
ATTRIB
  5
8B0
  8
0
 62
     3
 10
374.953948
 20
11.976541
 30
0.0
 40
3.5
  1
3102 St 05 30
 41
0.7
 51
15.0
 72
     1
 11
389.449781
 21
11.976541
 31
0.0
  2
NUMMER
 70
     0
  0
ATTRIB
  5
8B1
  8
0
 62
     2
 10
346.517328
 20
44.656056
 30
0.0
 40
5.0
  1
2:1
 41
0.7
 51
15.0
 72
     1
 11
349.433995
 21
44.656056
 31
0.0
  2
MASS
 70
     0
  0
ATTRIB
  5
8B2
  8
0
 62
     3
 10
349.519299
 20
38.210451
 30
0.0
 40
3.5
  1

 41
0.7
 51
15.0
 72
     1
 11
349.519299
 21
38.210451
 31
0.0
  2
MASS2
 70
     0
  0
ATTRIB
  5
8B3
  8
0
 62
     4
 10
329.0
 20
39.0
 30
0.0
 40
2.5
  1

 41
0.7
 51
15.0
 72
     1
 11
329.0
 21
39.0
 31
0.0
  2
TEIL
 70
     0
  0
ATTRIB
  5
8B4
  8
0
 62
     3
 10
302.288548
 20
69.004319
 30
0.0
 40
3.5
  1

 41
0.7
 51
15.0
  2
TOL
 70
     0
  0
ATTRIB
  5
8B5
  8
0
 62
     3
 10
302.288548
 20
64.004319
 30
0.0
 40
3.5
  1

 41
0.7
 51
15.0
  2
RADIEN
 70
     0
  0
ATTRIB
  5
8B6
  8
0
 62
     3
 10
302.288548
 20
59.004319
 30
0.0
 40
3.5
  1
 
 41
0.7
 51
15.0
  2
FACETTE
 70
     0
  0
ATTRIB
  5
8B7
  8
0
 62
     4
 10
212.813733
 20
17.0
 30
0.0
 40
2.5
  1
A
 41
0.7
 51
15.0
  2
INDEX1
 70
     0
  0
ATTRIB
  5
8B8
  8
0
 62
     4
 10
219.651257
 20
17.0
 30
0.0
 40
2.5
  1
Rippe neu (23.20)
 41
0.7
 51
15.0
  2
A1
 70
     0
  0
ATTRIB
  5
8B9
  8
0
 62
     4
 10
252.651257
 20
17.0
 30
0.0
 40
2.5
  1
04.05.99
 41
0.7
 51
15.0
  2
DATUM1
 70
     0
  0
ATTRIB
  5
8BA
  8
0
 62
     4
 10
265.53501
 20
17.0
 30
0.0
 40
2.5
  1
Alinjak
 41
0.7
 51
15.0
  2
NAME1
 70
     0
  0
ATTRIB
  5
8BB
  8
0
 62
     4
 10
212.813733
 20
22.0
 30
0.0
 40
2.5
  1
B
 41
0.7
 51
15.0
  2
INDEX2
 70
     0
  0
ATTRIB
  5
8BC
  8
0
 62
     4
 10
219.651257
 20
22.0
 30
0.0
 40
2.5
  1
Rippe gebrochen
 41
0.7
 51
15.0
  2
A2
 70
     0
  0
ATTRIB
  5
8BD
  8
0
 62
     4
 10
252.651257
 20
22.0
 30
0.0
 40
2.5
  1
26.05.99
 41
0.7
 51
15.0
  2
DATUM2
 70
     0
  0
ATTRIB
  5
8BE
  8
0
 62
     4
 10
265.53501
 20
22.0
 30
0.0
 40
2.5
  1
Alinjak
 41
0.7
 51
15.0
  2
NAME2
 70
     0
  0
ATTRIB
  5
8BF
  8
0
 62
     4
 10
212.813733
 20
27.0
 30
0.0
 40
2.5
  1
C
 41
0.7
 51
15.0
  2
INDEX3
 70
     0
  0
ATTRIB
  5
8C0
  8
0
 62
     4
 10
219.651257
 20
27.0
 30
0.0
 40
2.5
  1
92203711 : Index H
 41
0.7
 51
15.0
  2
A3
 70
     0
  0
ATTRIB
  5
8C1
  8
0
 62
     4
 10
252.651257
 20
27.0
 30
0.0
 40
2.5
  1
06.10.00
 41
0.7
 51
15.0
  2
DATUM3
 70
     0
  0
ATTRIB
  5
8C2
  8
0
 62
     4
 10
265.53501
 20
27.0
 30
0.0
 40
2.5
  1
Stupp
 41
0.7
 51
15.0
  2
NAME3
 70
     0
  0
ATTRIB
  5
8C3
  8
0
 62
     4
 10
212.813733
 20
32.0
 30
0.0
 40
2.5
  1

 41
0.7
 51
15.0
  2
INDEX4
 70
     0
  0
ATTRIB
  5
8C4
  8
0
 62
     4
 10
219.651257
 20
32.0
 30
0.0
 40
2.5
  1

 41
0.7
 51
15.0
  2
A4
 70
     0
  0
ATTRIB
  5
8C5
  8
0
 62
     4
 10
252.651257
 20
32.0
 30
0.0
 40
2.5
  1

 41
0.7
 51
15.0
  2
DATUM4
 70
     0
  0
ATTRIB
  5
8C6
  8
0
 62
     4
 10
265.53501
 20
32.0
 30
0.0
 40
2.5
  1

 41
0.7
 51
15.0
  2
NAME4
 70
     0
  0
ATTRIB
  5
8C7
  8
0
 62
     4
 10
212.813733
 20
37.0
 30
0.0
 40
2.5
  1

 41
0.7
 51
15.0
  2
INDEX5
 70
     0
  0
ATTRIB
  5
8C8
  8
0
 62
     4
 10
219.651257
 20
37.0
 30
0.0
 40
2.5
  1

 41
0.7
 51
15.0
  2
A5
 70
     0
  0
ATTRIB
  5
8C9
  8
0
 62
     4
 10
252.651257
 20
37.0
 30
0.0
 40
2.5
  1

 41
0.7
 51
15.0
  2
DATUM5
 70
     0
  0
ATTRIB
  5
8CA
  8
0
 62
     4
 10
265.53501
 20
37.0
 30
0.0
 40
2.5
  1

 41
0.7
 51
15.0
  2
NAME5
 70
     0
  0
ATTRIB
  5
8CB
  8
0
 62
     4
 10
212.813733
 20
42.0
 30
0.0
 40
2.5
  1

 41
0.7
 51
15.0
  2
INDEX6
 70
     0
  0
ATTRIB
  5
8CC
  8
0
 62
     4
 10
219.651257
 20
42.0
 30
0.0
 40
2.5
  1

 41
0.7
 51
15.0
  2
A6
 70
     0
  0
ATTRIB
  5
8CD
  8
0
 62
     4
 10
252.651257
 20
42.0
 30
0.0
 40
2.5
  1

 41
0.7
 51
15.0
  2
DATUM6
 70
     0
  0
ATTRIB
  5
8CE
  8
0
 62
     4
 10
265.53501
 20
42.0
 30
0.0
 40
2.5
  1

 41
0.7
 51
15.0
  2
NAME6
 70
     0
  0
ATTRIB
  5
8CF
  8
0
 62
     4
 10
212.813733
 20
47.0
 30
0.0
 40
2.5
  1

 41
0.7
 51
15.0
  2
INDEX7
 70
     0
  0
ATTRIB
  5
8D0
  8
0
 62
     4
 10
219.651257
 20
47.0
 30
0.0
 40
2.5
  1

 41
0.7
 51
15.0
  2
A7
 70
     0
  0
ATTRIB
  5
8D1
  8
0
 62
     4
 10
252.651257
 20
47.0
 30
0.0
 40
2.5
  1

 41
0.7
 51
15.0
  2
DATUM7
 70
     0
  0
ATTRIB
  5
8D2
  8
0
 62
     4
 10
265.53501
 20
47.0
 30
0.0
 40
2.5
  1

 41
0.7
 51
15.0
  2
NAME7
 70
     0
  0
ATTRIB
  5
8D3
  8
0
 62
     4
 10
212.813733
 20
52.0
 30
0.0
 40
2.5
  1

 41
0.7
 51
15.0
  2
INDEX8
 70
     0
  0
ATTRIB
  5
8D4
  8
0
 62
     4
 10
219.651257
 20
52.0
 30
0.0
 40
2.5
  1

 41
0.7
 51
15.0
  2
A8
 70
     0
  0
ATTRIB
  5
8D5
  8
0
 62
     4
 10
252.651257
 20
52.0
 30
0.0
 40
2.5
  1

 41
0.7
 51
15.0
  2
DATUM8
 70
     0
  0
ATTRIB
  5
8D6
  8
0
 62
     4
 10
265.53501
 20
52.0
 30
0.0
 40
2.5
  1

 41
0.7
 51
15.0
  2
NAME8
 70
     0
  0
SEQEND
  5
8D7
  8
05
  0
INSERT
  5
8D8
  8
035
  2
RAUH
 10
683.030166
 20
740.781636
 30
0.0
 41
0.1
 42
0.1
 43
0.1
  0
INSERT
  5
8D9
  8
BEM1
  2
RAUH
 10
785.456514
 20
593.825199
 30
0.0
  0
INSERT
  5
8DA
  8
05
  2
ACAD
 10
585.456514
 20
593.825199
 30
0.0
  0
INSERT
  5
8DB
  8
035
  2
RAUH
 10
683.030166
 20
740.781636
 30
0.0
 41
0.1
 42
0.1
 43
0.1
  0
INSERT
  5
8DC
  8
BEM1
  2
RAUH
 10
785.456514
 20
593.825199
 30
0.0
  0
INSERT
  5
8DD
  8
05
  2
ACAD
 10
585.456514
 20
593.825199
 30
0.0
  0
INSERT
  5
8DE
  8
05
  2
TOLERANZ
 10
585.456514
 20
593.825199
 30
0.0
  0
TEXT
  5
8DF
  8
BEM1
 10
95.153983
 20
505.408789
 30
0.0
 40
3.5
  1
  
  7
HELV
  0
TEXT
  5
8E0
  8
BEM1
 10
95.153983
 20
681.016344
 30
0.0
 40
3.5
  1
  
  7
HELV
  0
TEXT
  5
8E1
  8
BEM1
 62
     3
 10
220.294119
 20
65.170768
 30
0.0
 40
3.5
  1
Housing material PA6 / 30%GR
 41
0.7
 51
15.0
  0
LINE
  5
8E2
  8
BEM1
 10
176.555292
 20
196.713745
 30
0.0
 11
176.555292
 21
165.768925
 31
0.0
  0
LINE
  5
8E3
  8
BEM1
 10
190.155292
 20
180.413745
 30
0.0
 11
190.155292
 21
165.768925
 31
0.0
  0
LINE
  5
8E4
  8
BEM1
 10
198.018573
 20
166.568925
 30
0.0
 11
149.984732
 21
166.568925
 31
0.0
  0
SOLID
  5
8E5
  8
BEM1
 10
193.655292
 20
165.985592
 30
0.0
 11
193.655292
 21
167.152258
 31
0.0
 12
190.155292
 22
166.568925
 32
0.0
 13
190.155292
 23
166.568925
 33
0.0
  0
SOLID
  5
8E6
  8
BEM1
 10
173.055292
 20
165.985592
 30
0.0
 11
173.055292
 21
167.152258
 31
0.0
 12
176.555292
 22
166.568925
 32
0.0
 13
176.555292
 23
166.568925
 33
0.0
  0
TEXT
  5
8E7
  8
BEM1
 62
     3
 10
150.582853
 20
168.318925
 30
0.0
 40
3.5
  1
7.00 [0.276"]
 41
0.7
 51
15.0
 72
     1
 11
162.628686
 21
170.068925
 31
0.0
 73
     2
  0
LINE
  5
8E9
  8
05
 10
87.235263
 20
180.013745
 30
0.0
 11
62.235264
 21
180.013745
 31
0.0
  0
LINE
  5
8EA
  8
05
 10
87.235263
 20
175.013745
 30
0.0
 11
62.235264
 21
175.013745
 31
0.0
  0
ARC
  5
8EB
  8
05
 10
62.235263
 20
177.513745
 30
0.0
 40
2.5
 50
90.0
 51
270.0
  0
ARC
  5
8EC
  8
05
 10
87.235263
 20
177.513745
 30
0.0
 40
2.5
 50
270.0
 51
90.0
  0
INSERT
  5
8ED
  8
035
  2
RAUH
 10
793.038684
 20
757.274212
 30
0.0
 41
0.1
 42
0.1
 43
0.1
  0
INSERT
  5
8EE
  8
BEM1
  2
RAUH
 10
895.465032
 20
610.317775
 30
0.0
  0
INSERT
  5
8EF
  8
05
  2
ACAD
 10
695.465032
 20
610.317775
 30
0.0
  0
INSERT
  5
8F0
  8
035
  2
RAUH
 10
793.038684
 20
757.274212
 30
0.0
 41
0.1
 42
0.1
 43
0.1
  0
INSERT
  5
8F1
  8
BEM1
  2
RAUH
 10
895.465032
 20
610.317775
 30
0.0
  0
INSERT
  5
8F2
  8
05
  2
ACAD
 10
695.465032
 20
610.317775
 30
0.0
  0
INSERT
  5
8F3
  8
05
  2
TOLERANZ
 10
695.465032
 20
610.317775
 30
0.0
  0
TEXT
  5
8F4
  8
BEM1
 62
     3
 10
324.903494
 20
228.553722
 30
0.0
 40
3.6
  1
NL4MP
  7
HELV
  0
TEXT
  5
8F5
  8
BEM1
 10
205.162501
 20
521.901364
 30
0.0
 40
3.5
  1
  
  7
HELV
  0
TEXT
  5
8F6
  8
BEM1
 10
205.162501
 20
697.508919
 30
0.0
 40
3.5
  1
  
  7
HELV
  0
POLYLINE
  5
8F7
  8
05
 62
     4
 66
     1
 10
0.0
 20
0.0
 30
0.0
  0
VERTEX
  5
FB8
  8
05
 62
     4
 10
344.012507
 20
179.031307
 30
0.0
  0
VERTEX
  5
FB9
  8
05
 62
     4
 10
343.468477
 20
180.526018
 30
0.0
 42
-0.520567
  0
VERTEX
  5
FBA
  8
05
 62
     4
 10
343.948988
 20
181.212258
 30
0.0
  0
VERTEX
  5
FBB
  8
05
 62
     4
 10
347.069725
 20
181.212258
 30
0.0
  0
VERTEX
  5
FBC
  8
05
 62
     4
 10
348.10052
 20
178.380174
 30
0.0
  0
VERTEX
  5
FBD
  8
05
 62
     4
 10
349.021416
 20
178.380174
 30
0.0
  0
VERTEX
  5
FBE
  8
05
 62
     4
 10
347.990621
 20
181.212258
 30
0.0
  0
VERTEX
  5
FBF
  8
05
 62
     4
 10
349.25037
 20
181.212258
 30
0.0
  0
VERTEX
  5
FC0
  8
05
 62
     4
 10
350.460891
 20
177.886379
 30
0.0
 42
-0.520567
  0
VERTEX
  5
FC1
  8
05
 62
     4
 10
349.980381
 20
177.200139
 30
0.0
  0
VERTEX
  5
FC2
  8
05
 62
     4
 10
347.27425
 20
177.200139
 30
0.0
  0
VERTEX
  5
FC3
  8
05
 62
     4
 10
346.73022
 20
178.69485
 30
0.0
  0
VERTEX
  5
FC4
  8
05
 62
     4
 10
346.335272
 20
178.69485
 30
0.0
  0
VERTEX
  5
FC5
  8
05
 62
     4
 10
345.934765
 20
177.200139
 30
0.0
  0
VERTEX
  5
FC6
  8
05
 62
     4
 10
344.678998
 20
177.200139
 30
0.0
  0
VERTEX
  5
FC7
  8
05
 62
     4
 10
345.079505
 20
178.69485
 30
0.0
  0
VERTEX
  5
FC8
  8
05
 62
     4
 10
344.493018
 20
178.69485
 30
0.0
 42
-0.315299
  0
VERTEX
  5
FC9
  8
05
 62
     4
 10
344.012507
 20
179.031307
 30
0.0
  0
SEQEND
  5
FCA
  8
05
 62
     4
  0
POLYLINE
  5
90B
  8
05
 62
     4
 66
     1
 10
0.0
 20
0.0
 30
0.0
 70
     1
  0
VERTEX
  5
FCB
  8
05
 62
     4
 10
346.386622
 20
179.638878
 30
0.0
  0
VERTEX
  5
FCC
  8
05
 62
     4
 10
345.047137
 20
179.638878
 30
0.0
  0
VERTEX
  5
FCD
  8
05
 62
     4
 10
344.818071
 20
180.26823
 30
0.0
  0
VERTEX
  5
FCE
  8
05
 62
     4
 10
346.157556
 20
180.26823
 30
0.0
  0
SEQEND
  5
FCF
  8
05
 62
     4
  0
CIRCLE
  5
911
  8
05
 62
     4
 10
361.028954
 20
180.513745
 30
0.0
 40
1.465186
  0
TEXT
  5
912
  8
05
 10
350.045509
 20
174.314607
 30
0.0
 40
1.6
  1
NRTL/C
  7
HELV
 72
     1
 11
354.426461
 21
174.314607
 31
0.0
  0
ARC
  5
913
  8
05
 62
     4
 10
356.625407
 20
180.513745
 30
0.0
 40
4.004738
 50
40.643786
 51
319.356214
  0
ARC
  5
914
  8
05
 62
     4
 10
356.625407
 20
180.513745
 30
0.0
 40
1.779884
 50
129.868342
 51
149.853574
  0
LINE
  5
915
  8
05
 62
     4
 10
355.095914
 20
181.351379
 30
0.0
 11
356.25376
 21
180.366737
 31
0.0
  0
ARC
  5
916
  8
05
 62
     4
 10
356.625407
 20
180.513745
 30
0.0
 40
1.779884
 50
196.397597
 51
230.131658
  0
ARC
  5
917
  8
05
 62
     4
 10
356.625407
 20
180.513745
 30
0.0
 40
3.003554
 50
40.836464
 51
319.163536
  0
LINE
  5
918
  8
05
 62
     4
 10
354.257636
 20
181.129673
 30
0.0
 11
355.541806
 21
180.037603
 31
0.0
  0
ARC
  5
919
  8
05
 62
     4
 10
354.875232
 20
179.99872
 30
0.0
 40
0.044497
 50
16.397597
 51
105.0
  0
LINE
  5
91A
  8
05
 62
     4
 10
354.863715
 20
180.041701
 30
0.0
 11
354.296072
 21
179.889601
 31
0.0
  0
ARC
  5
91B
  8
05
 62
     4
 10
355.124741
 20
181.385276
 30
0.0
 40
0.044497
 50
149.853574
 51
229.621871
  0
LINE
  5
91C
  8
05
 62
     4
 10
357.737834
 20
180.157768
 30
0.0
 11
358.313953
 21
180.157768
 31
0.0
  0
LINE
  5
91D
  8
05
 62
     4
 10
357.737834
 20
180.869721
 30
0.0
 11
358.313953
 21
180.869721
 31
0.0
  0
ARC
  5
91E
  8
05
 62
     4
 10
356.625407
 20
180.513745
 30
0.0
 40
1.779884
 50
13.342364
 51
50.131658
  0
LINE
  5
91F
  8
05
 62
     4
 10
358.022548
 20
179.341404
 30
0.0
 11
358.472727
 21
178.963659
 31
0.0
  0
ARC
  5
920
  8
05
 62
     4
 10
356.625407
 20
180.513745
 30
0.0
 40
1.779884
 50
321.397597
 51
346.657636
  0
ARC
  5
921
  8
05
 62
     4
 10
357.737834
 20
180.914218
 30
0.0
 40
0.044497
 50
180.0
 51
270.0
  0
LINE
  5
922
  8
05
 62
     4
 10
356.981384
 20
178.140629
 30
0.0
 11
356.981384
 21
182.88686
 31
0.0
  0
ARC
  5
923
  8
05
 62
     4
 10
356.224933
 20
180.332839
 30
0.0
 40
0.044497
 50
360.0
 51
49.621871
  0
LINE
  5
924
  8
05
 62
     4
 10
355.557477
 20
179.181802
 30
0.0
 11
355.557477
 21
180.003706
 31
0.0
  0
ARC
  5
925
  8
05
 62
     4
 10
355.51298
 20
179.181802
 30
0.0
 40
0.044497
 50
230.131658
 51
0.0
  0
ARC
  5
926
  8
05
 62
     4
 10
355.51298
 20
180.003706
 30
0.0
 40
0.044497
 50
0.0
 51
49.621871
  0
LINE
  5
927
  8
05
 62
     4
 10
356.26943
 20
178.140629
 30
0.0
 11
356.26943
 21
180.332839
 31
0.0
  0
LINE
  5
928
  8
05
 62
     4
 10
357.693337
 20
178.312439
 30
0.0
 11
357.693337
 21
180.113271
 31
0.0
  0
ARC
  5
929
  8
05
 62
     4
 10
358.05115
 20
179.375491
 30
0.0
 40
0.044497
 50
141.397597
 51
230.0
  0
ARC
  5
92A
  8
05
 62
     4
 10
357.737834
 20
180.113271
 30
0.0
 40
0.044497
 50
90.0
 51
180.0
  0
LINE
  5
92B
  8
05
 62
     4
 10
356.26943
 20
181.559426
 30
0.0
 11
356.26943
 21
182.88686
 31
0.0
  0
ARC
  5
92C
  8
05
 62
     4
 10
356.224933
 20
181.559426
 30
0.0
 40
0.044497
 50
270.0
 51
360.0
  0
LINE
  5
92D
  8
05
 62
     4
 10
355.557477
 20
181.559426
 30
0.0
 11
355.557477
 21
181.845688
 31
0.0
  0
ARC
  5
92E
  8
05
 62
     4
 10
355.601974
 20
181.559426
 30
0.0
 40
0.044497
 50
180.0
 51
270.0
  0
ARC
  5
92F
  8
05
 62
     4
 10
355.51298
 20
181.845688
 30
0.0
 40
0.044497
 50
0.0
 51
129.868342
  0
LINE
  5
930
  8
05
 62
     4
 10
355.601974
 20
181.514929
 30
0.0
 11
356.224933
 21
181.514929
 31
0.0
  0
LINE
  5
931
  8
05
 62
     4
 10
357.693337
 20
180.914218
 30
0.0
 11
357.693337
 21
181.845688
 31
0.0
  0
ARC
  5
932
  8
05
 62
     4
 10
357.737834
 20
181.845688
 30
0.0
 40
0.044497
 50
50.131658
 51
180.0
  0
ARC
  5
933
  8
05
 62
     4
 10
358.313953
 20
180.914218
 30
0.0
 40
0.044497
 50
270.0
 51
13.342364
  0
CIRCLE
  5
934
  8
05
 62
     4
 10
361.028954
 20
180.513745
 30
0.0
 40
1.198789
  0
TEXT
  5
935
  8
05
 62
     4
 10
360.529671
 20
179.714552
 30
0.0
 40
1.598385
  1
R
  7
HELV
 72
     4
 11
361.062466
 21
180.513745
 31
0.0
  0
LINE
  5
936
  8
05
 62
     4
 10
358.9601
 20
178.554704
 30
0.0
 11
359.658936
 21
177.968311
 31
0.0
  0
ARC
  5
937
  8
05
 62
     4
 10
358.931498
 20
178.520617
 30
0.0
 40
0.044497
 50
50.0
 51
139.163536
  0
ARC
  5
938
  8
05
 62
     4
 10
358.313953
 20
180.113271
 30
0.0
 40
0.044497
 50
346.657636
 51
90.0
  0
ARC
  5
939
  8
05
 62
     4
 10
359.630334
 20
177.934225
 30
0.0
 40
0.044497
 50
319.356214
 51
50.0
  0
LINE
  5
93A
  8
05
 62
     4
 10
358.9601
 20
182.472785
 30
0.0
 11
359.658936
 21
183.059178
 31
0.0
  0
ARC
  5
93B
  8
05
 62
     4
 10
358.931498
 20
182.506872
 30
0.0
 40
0.044497
 50
220.836464
 51
310.0
  0
ARC
  5
93C
  8
05
 62
     4
 10
359.630334
 20
183.093265
 30
0.0
 40
0.044497
 50
310.0
 51
40.643786
  0
ARC
  5
93D
  8
05
 62
     4
 10
356.625407
 20
180.513745
 30
0.0
 40
2.492831
 50
100.410007
 51
163.708176
  0
ARC
  5
93E
  8
05
 62
     4
 10
356.625407
 20
180.513745
 30
0.0
 40
2.492831
 50
196.900051
 51
259.589993
  0
ARC
  5
93F
  8
05
 62
     4
 10
356.625407
 20
180.513745
 30
0.0
 40
2.492831
 50
280.410007
 51
294.170196
  0
ARC
  5
940
  8
05
 62
     4
 10
356.625407
 20
180.513745
 30
0.0
 40
2.492831
 50
321.900051
 51
79.589993
  0
ARC
  5
941
  8
05
 62
     4
 10
356.18943
 20
182.88686
 30
0.0
 40
0.08
 50
0.0
 51
100.410007
  0
ARC
  5
942
  8
05
 62
     4
 10
354.309462
 20
181.190616
 30
0.0
 40
0.08
 50
163.708176
 51
229.621871
  0
ARC
  5
943
  8
05
 62
     4
 10
354.316778
 20
179.812327
 30
0.0
 40
0.08
 50
105.0
 51
196.900051
  0
ARC
  5
944
  8
05
 62
     4
 10
357.061384
 20
178.140629
 30
0.0
 40
0.08
 50
180.0
 51
280.410007
  0
ARC
  5
945
  8
05
 62
     4
 10
356.18943
 20
178.140629
 30
0.0
 40
0.08
 50
259.589993
 51
0.0
  0
ARC
  5
946
  8
05
 62
     4
 10
357.613337
 20
178.312439
 30
0.0
 40
0.08
 50
294.170196
 51
0.0
  0
ARC
  5
947
  8
05
 62
     4
 10
358.52415
 20
179.024943
 30
0.0
 40
0.08
 50
230.0
 51
321.900051
  0
ARC
  5
948
  8
05
 62
     4
 10
357.061384
 20
182.88686
 30
0.0
 40
0.08
 50
79.589993
 51
180.0
  0
INSERT
  5
949
  8
SCHRAFFIERT
  2
*X5
 10
146.202884
 20
85.508641
 30
0.0
 41
0.4
 42
0.4
 43
0.4
1001
ACAD
1000
HATCH
1002
{
1070
    16
1000
ANSI31,I
1040
1.0
1040
0.0
1002
}
  0
INSERT
  5
94A
  8
SCHRAFFIERT
  2
*X6
 10
145.203874
 20
82.992746
 30
0.0
 41
0.4
 42
0.4
 43
0.4
1001
ACAD
1000
HATCH
1002
{
1070
    16
1000
ANSI31,I
1040
1.0
1040
0.0
1002
}
  0
INSERT
  5
94B
  8
SCHRAFFIERT
  2
*X7
 10
145.203874
 20
82.992746
 30
0.0
 41
0.4
 42
0.4
 43
0.4
1001
ACAD
1000
HATCH
1002
{
1070
    16
1000
ANSI31,I
1040
1.0
1040
0.0
1002
}
  0
TEXT
  5
94C
  8
07
 62
     3
 10
61.443454
 20
176.313745
 30
0.0
 40
2.4
  1
LIECHTENSTEIN
 51
15.0
  7
HELV
 72
     1
 11
74.300597
 21
176.313745
 31
0.0
  0
ARC
  5
94D
  8
05
 10
337.625407
 20
204.513745
 30
0.0
 40
22.6
 50
77.954075
 51
102.045925
  0
LINE
  5
94E
  8
05
 10
332.425407
 20
227.007299
 30
0.0
 11
332.425407
 21
227.533736
 31
0.0
  0
LINE
  5
94F
  8
05
 10
342.825407
 20
227.007299
 30
0.0
 11
342.825407
 21
227.533736
 31
0.0
  0
ARC
  5
950
  8
05
 10
332.825407
 20
227.007299
 30
0.0
 40
0.4
 50
180.0
 51
282.045925
  0
ARC
  5
951
  8
05
 10
342.425407
 20
227.007299
 30
0.0
 40
0.4
 50
257.954075
 51
0.0
  0
ARC
  5
952
  8
05
 10
337.625407
 20
204.513745
 30
0.0
 40
22.6
 50
207.954075
 51
232.045925
  0
ARC
  5
953
  8
05
 10
323.479725
 20
186.378153
 30
0.0
 40
0.4
 50
310.0
 51
52.045925
  0
LINE
  5
954
  8
05
 10
323.73684
 20
186.071735
 30
0.0
 11
323.333566
 21
185.733348
 31
0.0
  0
ARC
  5
955
  8
05
 10
317.308964
 20
193.73218
 30
0.0
 40
0.4
 50
27.954075
 51
130.0
  0
LINE
  5
956
  8
05
 10
317.051849
 20
194.038597
 30
0.0
 11
316.648575
 21
193.700211
 31
0.0
  0
ARC
  5
957
  8
05
 10
337.625407
 20
204.513745
 30
0.0
 40
22.6
 50
307.954075
 51
332.045925
  0
ARC
  5
958
  8
05
 10
357.94185
 20
193.73218
 30
0.0
 40
0.4
 50
50.0
 51
152.045925
  0
LINE
  5
959
  8
05
 10
358.198965
 20
194.038597
 30
0.0
 11
358.602239
 21
193.700211
 31
0.0
  0
ARC
  5
95A
  8
05
 10
351.771089
 20
186.378153
 30
0.0
 40
0.4
 50
127.954075
 51
230.0
  0
LINE
  5
95B
  8
05
 10
351.513974
 20
186.071735
 30
0.0
 11
351.917248
 21
185.733348
 31
0.0
  0
ARC
  5
95F
  8
035
 10
81.535263
 20
204.513745
 30
0.0
 40
8.9
 50
140.412327
 51
155.016432
  0
ARC
  5
960
  8
035
 10
81.535263
 20
204.513745
 30
0.0
 40
8.4
 50
141.327211
 51
164.848663
  0
ARC
  5
961
  8
035
 10
81.535263
 20
204.513745
 30
0.0
 40
10.3
 50
138.337351
 51
152.764536
  0
ARC
  5
962
  8
035
 10
81.535263
 20
204.513745
 30
0.0
 40
9.85
 50
140.037778
 51
153.416122
  0
ARC
  5
963
  8
035
 10
81.535263
 20
204.513745
 30
0.0
 40
9.35
 50
140.837969
 51
154.216314
  0
LINE
  5
964
  8
035
 10
73.543436
 20
211.778089
 30
0.0
 11
73.840425
 21
211.360602
 31
0.0
  0
LINE
  5
965
  8
035
 10
71.327089
 20
208.039817
 30
0.0
 11
73.427257
 21
206.709248
 31
0.0
  0
LINE
  5
966
  8
035
 10
73.13699
 20
204.343442
 30
0.0
 11
72.066754
 21
202.940584
 31
0.0
  0
LINE
  5
967
  8
035
 10
71.936855
 20
204.688559
 30
0.0
 11
70.802306
 21
203.312232
 31
0.0
  0
LINE
  5
968
  8
035
 10
73.675765
 20
201.549241
 30
0.0
 11
71.194113
 21
201.399164
 31
0.0
  0
LINE
  5
969
  8
035
 10
72.066754
 20
202.940584
 30
0.0
 11
73.307874
 21
202.81962
 31
0.0
  0
ARC
  5
96A
  8
035
 10
81.535263
 20
204.513745
 30
0.0
 40
10.8
 50
186.387447
 51
196.761418
  0
ARC
  5
96B
  8
035
 10
81.535263
 20
204.513745
 30
0.0
 40
8.4
 50
191.635306
 51
200.66584
  0
LINE
  5
96C
  8
035
 10
70.9357
 20
206.584798
 30
0.0
 11
73.200609
 21
205.559465
 31
0.0
  0
LINE
  5
96D
  8
035
 10
70.747635
 20
205.030538
 30
0.0
 11
71.936855
 21
204.688559
 31
0.0
  0
ARC
  5
96E
  8
035
 10
81.535263
 20
204.513745
 30
0.0
 40
10.8
 50
168.944241
 51
177.257278
  0
ARC
  5
96F
  8
035
 10
81.535263
 20
204.513745
 30
0.0
 40
8.4
 50
172.848663
 51
181.1617
  0
ARC
  5
970
  8
035
 10
81.535263
 20
204.513745
 30
0.0
 40
10.8
 50
137.730054
 51
160.944241
  0
LINE
  5
971
  8
035
 10
72.377191
 20
209.227523
 30
0.0
 11
72.726604
 21
208.921693
 31
0.0
  0
LINE
  5
972
  8
035
 10
73.116125
 20
208.580758
 30
0.0
 11
73.468046
 21
208.272734
 31
0.0
  0
LINE
  5
973
  8
035
 10
86.537576
 20
214.085415
 30
0.0
 11
84.909999
 21
212.206024
 31
0.0
  0
LINE
  5
974
  8
035
 10
86.614244
 20
212.064503
 30
0.0
 11
86.056822
 21
211.592975
 31
0.0
  0
LINE
  5
975
  8
035
 10
85.156775
 20
214.688451
 30
0.0
 11
84.821398
 21
214.169899
 31
0.0
  0
ARC
  5
976
  8
035
 10
81.535263
 20
204.513745
 30
0.0
 40
10.2
 50
71.205788
 51
79.159815
  0
LINE
  5
977
  8
035
 10
81.943438
 20
214.705574
 30
0.0
 11
81.41609
 21
212.912899
 31
0.0
  0
LINE
  5
978
  8
035
 10
77.602239
 20
214.57214
 30
0.0
 11
77.81286
 21
213.084001
 31
0.0
  0
LINE
  5
979
  8
035
 10
79.094749
 20
215.034386
 30
0.0
 11
79.087161
 21
213.226967
 31
0.0
  0
POLYLINE
  5
97A
  8
035
 66
     1
 10
0.0
 20
0.0
 30
0.0
  0
VERTEX
  5
FD0
  8
035
 10
76.445166
 20
212.411027
 30
0.0
 42
0.174298
  0
VERTEX
  5
FD1
  8
035
 10
76.547336
 20
212.319376
 30
0.0
 42
0.104277
  0
VERTEX
  5
FD2
  8
035
 10
76.768846
 20
212.279469
 30
0.0
 42
0.065111
  0
VERTEX
  5
FD3
  8
035
 10
77.009224
 20
212.31816
 30
0.0
 42
0.051259
  0
VERTEX
  5
FD4
  8
035
 10
77.294563
 20
212.436137
 30
0.0
 42
0.051259
  0
VERTEX
  5
FD5
  8
035
 10
77.549936
 20
212.609693
 30
0.0
 42
0.065111
  0
VERTEX
  5
FD6
  8
035
 10
77.71436
 20
212.789257
 30
0.0
 42
0.145441
  0
VERTEX
  5
FD7
  8
035
 10
77.81286
 20
213.084001
 30
0.0
 42
0.174298
  0
SEQEND
  5
FD8
  8
035
  0
POLYLINE
  5
984
  8
035
 66
     1
 10
0.0
 20
0.0
 30
0.0
  0
VERTEX
  5
FD9
  8
035
 10
75.341248
 20
211.393136
 30
0.0
 42
0.24602
  0
VERTEX
  5
FDA
  8
035
 10
75.512169
 20
211.279175
 30
0.0
 42
0.081787
  0
VERTEX
  5
FDB
  8
035
 10
76.09777
 20
211.31295
 30
0.0
 42
0.040309
  0
VERTEX
  5
FDC
  8
035
 10
76.714052
 20
211.504532
 30
0.0
 42
0.029586
  0
VERTEX
  5
FDD
  8
035
 10
77.508548
 20
211.879659
 30
0.0
 42
0.029586
  0
VERTEX
  5
FDE
  8
035
 10
78.253212
 20
212.345943
 30
0.0
 42
0.040309
  0
VERTEX
  5
FDF
  8
035
 10
78.747167
 20
212.761293
 30
0.0
 42
0.080375
  0
VERTEX
  5
FE0
  8
035
 10
79.087161
 20
213.226967
 30
0.0
 42
0.24602
  0
SEQEND
  5
FE1
  8
035
  0
LINE
  5
98E
  8
035
 10
73.985553
 20
210.840226
 30
0.0
 11
74.285618
 21
210.418416
 31
0.0
  0
LINE
  5
98F
  8
035
 10
74.676475
 20
210.185343
 30
0.0
 11
74.977154
 21
209.762669
 31
0.0
  0
ARC
  5
990
  8
035
 10
81.535263
 20
204.513745
 30
0.0
 40
10.8
 50
120.769645
 51
129.730054
  0
LINE
  5
991
  8
035
 10
74.632213
 20
212.81964
 30
0.0
 11
75.341248
 21
211.393136
 31
0.0
  0
LINE
  5
992
  8
035
 10
76.010116
 20
213.79344
 30
0.0
 11
76.445166
 21
212.411027
 31
0.0
  0
LINE
  5
993
  8
035
 10
83.45358
 20
214.531732
 30
0.0
 11
82.665667
 21
212.837337
 31
0.0
  0
ARC
  5
994
  8
035
 10
81.535263
 20
204.513745
 30
0.0
 40
8.4
 50
82.266139
 51
90.8129
  0
ARC
  5
995
  8
035
 10
81.535263
 20
204.513745
 30
0.0
 40
8.4
 50
57.433317
 51
66.312113
  0
ARC
  5
996
  8
035
 10
81.535263
 20
204.513745
 30
0.0
 40
10.8
 50
103.060133
 51
111.356447
  0
ARC
  5
997
  8
035
 10
81.535263
 20
204.513745
 30
0.0
 40
10.8
 50
70.407691
 51
95.060133
  0
ARC
  5
998
  8
035
 10
81.535263
 20
204.513745
 30
0.0
 40
10.2
 50
87.706575
 51
95.85823
  0
LINE
  5
999
  8
035
 10
80.58269
 20
215.271654
 30
0.0
 11
80.494177
 21
214.660475
 31
0.0
  0
ARC
  5
99A
  8
035
 10
81.535263
 20
204.513745
 30
0.0
 40
8.4
 50
347.167628
 51
358.16543
  0
LINE
  5
99B
  8
035
 10
91.30645
 20
205.300387
 30
0.0
 11
92.281131
 21
203.433778
 31
0.0
  0
LINE
  5
99C
  8
035
 10
89.725465
 20
202.64811
 30
0.0
 11
91.284735
 21
203.492619
 31
0.0
  0
ARC
  5
99D
  8
035
 10
81.535263
 20
204.513745
 30
0.0
 40
10.8
 50
343.263207
 51
354.261008
  0
LINE
  5
99E
  8
035
 10
91.284735
 20
203.492619
 30
0.0
 11
91.877751
 21
201.403609
 31
0.0
  0
LINE
  5
99F
  8
035
 10
89.619842
 20
206.794004
 30
0.0
 11
92.105227
 21
206.73092
 31
0.0
  0
LINE
  5
9A0
  8
035
 10
90.4675
 20
205.449523
 30
0.0
 11
89.870394
 21
205.555667
 31
0.0
  0
ARC
  5
9A1
  8
035
 10
81.535263
 20
204.513745
 30
0.0
 40
8.4
 50
7.125229
 51
15.751132
  0
LINE
  5
9A2
  8
035
 10
90.4675
 20
205.449523
 30
0.0
 11
90.69741
 21
204.879658
 31
0.0
  0
LINE
  5
9A3
  8
035
 10
89.927098
 20
204.273323
 30
0.0
 11
90.69741
 21
204.879658
 31
0.0
  0
LINE
  5
9A4
  8
035
 10
92.318204
 20
205.120533
 30
0.0
 11
91.30645
 21
205.300387
 31
0.0
  0
ARC
  5
9A5
  8
035
 10
81.535263
 20
204.513745
 30
0.0
 40
10.8
 50
3.220808
 51
11.84671
  0
ARC
  5
9A6
  8
035
 10
81.535263
 20
204.513745
 30
0.0
 40
10.8
 50
40.447379
 51
62.407691
  0
LINE
  5
9A7
  8
035
 10
91.69379
 20
208.180397
 30
0.0
 11
89.223813
 21
207.896969
 31
0.0
  0
LINE
  5
9A8
  8
035
 10
91.038927
 20
209.644083
 30
0.0
 11
88.63814
 21
208.998067
 31
0.0
  0
POLYLINE
  5
9A9
  8
035
 66
     1
 10
0.0
 20
0.0
 30
0.0
 70
     4
 75
     6
  0
VERTEX
  5
9AA
  8
035
 10
89.754086
 20
211.520238
 30
0.0
 70
    16
  0
VERTEX
  5
9AB
  8
035
 10
89.754086
 20
211.520238
 30
0.0
 70
     8
  0
VERTEX
  5
9AC
  8
035
 10
89.779048
 20
211.484016
 30
0.0
 70
     8
  0
VERTEX
  5
9AD
  8
035
 10
89.801191
 20
211.451217
 30
0.0
 70
     8
  0
VERTEX
  5
9AE
  8
035
 10
89.820743
 20
211.421554
 30
0.0
 70
     8
  0
VERTEX
  5
9AF
  8
035
 10
89.837932
 20
211.394736
 30
0.0
 70
     8
  0
VERTEX
  5
9B0
  8
035
 10
89.852985
 20
211.370476
 30
0.0
 70
     8
  0
VERTEX
  5
9B1
  8
035
 10
89.866131
 20
211.348483
 30
0.0
 70
     8
  0
VERTEX
  5
9B2
  8
035
 10
89.877596
 20
211.32847
 30
0.0
 70
     8
  0
VERTEX
  5
9B3
  8
035
 10
89.88761
 20
211.310147
 30
0.0
 70
     8
  0
VERTEX
  5
9B4
  8
035
 10
89.896385
 20
211.29325
 30
0.0
 70
     8
  0
VERTEX
  5
9B5
  8
035
 10
89.904069
 20
211.277612
 30
0.0
 70
     8
  0
VERTEX
  5
9B6
  8
035
 10
89.910796
 20
211.263093
 30
0.0
 70
     8
  0
VERTEX
  5
9B7
  8
035
 10
89.916701
 20
211.24955
 30
0.0
 70
     8
  0
VERTEX
  5
9B8
  8
035
 10
89.921916
 20
211.236841
 30
0.0
 70
     8
  0
VERTEX
  5
9B9
  8
035
 10
89.926575
 20
211.224826
 30
0.0
 70
     8
  0
VERTEX
  5
9BA
  8
035
 10
89.930812
 20
211.213362
 30
0.0
 70
     8
  0
VERTEX
  5
9BB
  8
035
 10
89.934761
 20
211.202308
 30
0.0
 70
     8
  0
VERTEX
  5
9BC
  8
035
 10
89.938528
 20
211.191533
 30
0.0
 70
     8
  0
VERTEX
  5
9BD
  8
035
 10
89.942105
 20
211.180955
 30
0.0
 70
     8
  0
VERTEX
  5
9BE
  8
035
 10
89.945458
 20
211.170499
 30
0.0
 70
     8
  0
VERTEX
  5
9BF
  8
035
 10
89.948554
 20
211.160094
 30
0.0
 70
     8
  0
VERTEX
  5
9C0
  8
035
 10
89.951357
 20
211.149668
 30
0.0
 70
     8
  0
VERTEX
  5
9C1
  8
035
 10
89.953833
 20
211.139148
 30
0.0
 70
     8
  0
VERTEX
  5
9C2
  8
035
 10
89.955948
 20
211.128461
 30
0.0
 70
     8
  0
VERTEX
  5
9C3
  8
035
 10
89.957667
 20
211.117536
 30
0.0
 70
     8
  0
VERTEX
  5
9C4
  8
035
 10
89.958969
 20
211.106314
 30
0.0
 70
     8
  0
VERTEX
  5
9C5
  8
035
 10
89.95988
 20
211.094793
 30
0.0
 70
     8
  0
VERTEX
  5
9C6
  8
035
 10
89.960441
 20
211.082986
 30
0.0
 70
     8
  0
VERTEX
  5
9C7
  8
035
 10
89.960692
 20
211.070906
 30
0.0
 70
     8
  0
VERTEX
  5
9C8
  8
035
 10
89.960673
 20
211.058565
 30
0.0
 70
     8
  0
VERTEX
  5
9C9
  8
035
 10
89.960425
 20
211.045975
 30
0.0
 70
     8
  0
VERTEX
  5
9CA
  8
035
 10
89.959986
 20
211.03315
 30
0.0
 70
     8
  0
VERTEX
  5
9CB
  8
035
 10
89.959398
 20
211.020102
 30
0.0
 70
     8
  0
VERTEX
  5
9CC
  8
035
 10
89.958686
 20
211.006844
 30
0.0
 70
     8
  0
VERTEX
  5
9CD
  8
035
 10
89.957825
 20
210.993389
 30
0.0
 70
     8
  0
VERTEX
  5
9CE
  8
035
 10
89.956775
 20
210.979751
 30
0.0
 70
     8
  0
VERTEX
  5
9CF
  8
035
 10
89.955497
 20
210.965945
 30
0.0
 70
     8
  0
VERTEX
  5
9D0
  8
035
 10
89.95395
 20
210.951984
 30
0.0
 70
     8
  0
VERTEX
  5
9D1
  8
035
 10
89.952095
 20
210.937883
 30
0.0
 70
     8
  0
VERTEX
  5
9D2
  8
035
 10
89.949894
 20
210.923654
 30
0.0
 70
     8
  0
VERTEX
  5
9D3
  8
035
 10
89.947305
 20
210.909313
 30
0.0
 70
     8
  0
VERTEX
  5
9D4
  8
035
 10
89.944295
 20
210.894881
 30
0.0
 70
     8
  0
VERTEX
  5
9D5
  8
035
 10
89.940853
 20
210.880409
 30
0.0
 70
     8
  0
VERTEX
  5
9D6
  8
035
 10
89.936974
 20
210.865958
 30
0.0
 70
     8
  0
VERTEX
  5
9D7
  8
035
 10
89.932651
 20
210.851588
 30
0.0
 70
     8
  0
VERTEX
  5
9D8
  8
035
 10
89.927879
 20
210.837359
 30
0.0
 70
     8
  0
VERTEX
  5
9D9
  8
035
 10
89.922653
 20
210.823329
 30
0.0
 70
     8
  0
VERTEX
  5
9DA
  8
035
 10
89.916966
 20
210.80956
 30
0.0
 70
     8
  0
VERTEX
  5
9DB
  8
035
 10
89.910814
 20
210.79611
 30
0.0
 70
     8
  0
VERTEX
  5
9DC
  8
035
 10
89.904203
 20
210.783039
 30
0.0
 70
     8
  0
VERTEX
  5
9DD
  8
035
 10
89.897195
 20
210.770399
 30
0.0
 70
     8
  0
VERTEX
  5
9DE
  8
035
 10
89.889863
 20
210.758243
 30
0.0
 70
     8
  0
VERTEX
  5
9DF
  8
035
 10
89.882282
 20
210.746622
 30
0.0
 70
     8
  0
VERTEX
  5
9E0
  8
035
 10
89.874524
 20
210.735588
 30
0.0
 70
     8
  0
VERTEX
  5
9E1
  8
035
 10
89.866665
 20
210.725193
 30
0.0
 70
     8
  0
VERTEX
  5
9E2
  8
035
 10
89.858778
 20
210.715488
 30
0.0
 70
     8
  0
VERTEX
  5
9E3
  8
035
 10
89.850937
 20
210.706526
 30
0.0
 70
     8
  0
VERTEX
  5
9E4
  8
035
 10
89.843194
 20
210.698332
 30
0.0
 70
     8
  0
VERTEX
  5
9E5
  8
035
 10
89.835517
 20
210.690827
 30
0.0
 70
     8
  0
VERTEX
  5
9E6
  8
035
 10
89.827853
 20
210.683905
 30
0.0
 70
     8
  0
VERTEX
  5
9E7
  8
035
 10
89.820148
 20
210.67746
 30
0.0
 70
     8
  0
VERTEX
  5
9E8
  8
035
 10
89.812347
 20
210.671387
 30
0.0
 70
     8
  0
VERTEX
  5
9E9
  8
035
 10
89.804399
 20
210.665581
 30
0.0
 70
     8
  0
VERTEX
  5
9EA
  8
035
 10
89.796248
 20
210.659935
 30
0.0
 70
     8
  0
VERTEX
  5
9EB
  8
035
 10
89.787842
 20
210.654344
 30
0.0
 70
     8
  0
VERTEX
  5
9EC
  8
035
 10
89.779141
 20
210.648731
 30
0.0
 70
     8
  0
VERTEX
  5
9ED
  8
035
 10
89.770168
 20
210.643135
 30
0.0
 70
     8
  0
VERTEX
  5
9EE
  8
035
 10
89.76096
 20
210.637621
 30
0.0
 70
     8
  0
VERTEX
  5
9EF
  8
035
 10
89.751554
 20
210.632257
 30
0.0
 70
     8
  0
VERTEX
  5
9F0
  8
035
 10
89.741987
 20
210.62711
 30
0.0
 70
     8
  0
VERTEX
  5
9F1
  8
035
 10
89.732297
 20
210.622246
 30
0.0
 70
     8
  0
VERTEX
  5
9F2
  8
035
 10
89.722521
 20
210.617732
 30
0.0
 70
     8
  0
VERTEX
  5
9F3
  8
035
 10
89.712696
 20
210.613634
 30
0.0
 70
     8
  0
VERTEX
  5
9F4
  8
035
 10
89.702841
 20
210.609997
 30
0.0
 70
     8
  0
VERTEX
  5
9F5
  8
035
 10
89.692904
 20
210.606771
 30
0.0
 70
     8
  0
VERTEX
  5
9F6
  8
035
 10
89.682813
 20
210.603883
 30
0.0
 70
     8
  0
VERTEX
  5
9F7
  8
035
 10
89.6725
 20
210.60126
 30
0.0
 70
     8
  0
VERTEX
  5
9F8
  8
035
 10
89.661892
 20
210.598829
 30
0.0
 70
     8
  0
VERTEX
  5
9F9
  8
035
 10
89.650921
 20
210.596518
 30
0.0
 70
     8
  0
VERTEX
  5
9FA
  8
035
 10
89.639514
 20
210.594253
 30
0.0
 70
     8
  0
VERTEX
  5
9FB
  8
035
 10
89.627603
 20
210.591962
 30
0.0
 70
     8
  0
VERTEX
  5
9FC
  8
035
 10
89.615132
 20
210.589588
 30
0.0
 70
     8
  0
VERTEX
  5
9FD
  8
035
 10
89.602117
 20
210.587138
 30
0.0
 70
     8
  0
VERTEX
  5
9FE
  8
035
 10
89.588587
 20
210.584635
 30
0.0
 70
     8
  0
VERTEX
  5
9FF
  8
035
 10
89.574575
 20
210.582104
 30
0.0
 70
     8
  0
VERTEX
  5
A00
  8
035
 10
89.560111
 20
210.579566
 30
0.0
 70
     8
  0
VERTEX
  5
A01
  8
035
 10
89.545227
 20
210.577046
 30
0.0
 70
     8
  0
VERTEX
  5
A02
  8
035
 10
89.529952
 20
210.574567
 30
0.0
 70
     8
  0
VERTEX
  5
A03
  8
035
 10
89.514318
 20
210.572152
 30
0.0
 70
     8
  0
VERTEX
  5
A04
  8
035
 10
89.498365
 20
210.56982
 30
0.0
 70
     8
  0
VERTEX
  5
A05
  8
035
 10
89.482168
 20
210.567577
 30
0.0
 70
     8
  0
VERTEX
  5
A06
  8
035
 10
89.465811
 20
210.565423
 30
0.0
 70
     8
  0
VERTEX
  5
A07
  8
035
 10
89.449376
 20
210.56336
 30
0.0
 70
     8
  0
VERTEX
  5
A08
  8
035
 10
89.432949
 20
210.561389
 30
0.0
 70
     8
  0
VERTEX
  5
A09
  8
035
 10
89.416613
 20
210.559511
 30
0.0
 70
     8
  0
VERTEX
  5
A0A
  8
035
 10
89.40045
 20
210.557726
 30
0.0
 70
     8
  0
VERTEX
  5
A0B
  8
035
 10
89.384546
 20
210.556037
 30
0.0
 70
     8
  0
VERTEX
  5
A0C
  8
035
 10
89.368972
 20
210.554448
 30
0.0
 70
     8
  0
VERTEX
  5
A0D
  8
035
 10
89.353749
 20
210.552986
 30
0.0
 70
     8
  0
VERTEX
  5
A0E
  8
035
 10
89.338888
 20
210.551681
 30
0.0
 70
     8
  0
VERTEX
  5
A0F
  8
035
 10
89.324398
 20
210.550564
 30
0.0
 70
     8
  0
VERTEX
  5
A10
  8
035
 10
89.310289
 20
210.549665
 30
0.0
 70
     8
  0
VERTEX
  5
A11
  8
035
 10
89.29657
 20
210.549014
 30
0.0
 70
     8
  0
VERTEX
  5
A12
  8
035
 10
89.283252
 20
210.548642
 30
0.0
 70
     8
  0
VERTEX
  5
A13
  8
035
 10
89.270344
 20
210.54858
 30
0.0
 70
     8
  0
VERTEX
  5
A14
  8
035
 10
89.257841
 20
210.548848
 30
0.0
 70
     8
  0
VERTEX
  5
A15
  8
035
 10
89.245678
 20
210.549427
 30
0.0
 70
     8
  0
VERTEX
  5
A16
  8
035
 10
89.233779
 20
210.550288
 30
0.0
 70
     8
  0
VERTEX
  5
A17
  8
035
 10
89.222062
 20
210.551404
 30
0.0
 70
     8
  0
VERTEX
  5
A18
  8
035
 10
89.21045
 20
210.552744
 30
0.0
 70
     8
  0
VERTEX
  5
A19
  8
035
 10
89.198864
 20
210.55428
 30
0.0
 70
     8
  0
VERTEX
  5
A1A
  8
035
 10
89.187226
 20
210.555984
 30
0.0
 70
     8
  0
VERTEX
  5
A1B
  8
035
 10
89.175455
 20
210.557827
 30
0.0
 70
     8
  0
VERTEX
  5
A1C
  8
035
 10
89.163467
 20
210.559804
 30
0.0
 70
     8
  0
VERTEX
  5
A1D
  8
035
 10
89.151148
 20
210.562017
 30
0.0
 70
     8
  0
VERTEX
  5
A1E
  8
035
 10
89.138376
 20
210.564588
 30
0.0
 70
     8
  0
VERTEX
  5
A1F
  8
035
 10
89.125033
 20
210.567645
 30
0.0
 70
     8
  0
VERTEX
  5
A20
  8
035
 10
89.110996
 20
210.57131
 30
0.0
 70
     8
  0
VERTEX
  5
A21
  8
035
 10
89.096145
 20
210.575709
 30
0.0
 70
     8
  0
VERTEX
  5
A22
  8
035
 10
89.080359
 20
210.580967
 30
0.0
 70
     8
  0
VERTEX
  5
A23
  8
035
 10
89.063519
 20
210.587209
 30
0.0
 70
     8
  0
VERTEX
  5
A24
  8
035
 10
89.045508
 20
210.594585
 30
0.0
 70
     8
  0
VERTEX
  5
A25
  8
035
 10
89.026237
 20
210.603349
 30
0.0
 70
     8
  0
VERTEX
  5
A26
  8
035
 10
89.00562
 20
210.613779
 30
0.0
 70
     8
  0
VERTEX
  5
A27
  8
035
 10
88.983572
 20
210.626157
 30
0.0
 70
     8
  0
VERTEX
  5
A28
  8
035
 10
88.960008
 20
210.640759
 30
0.0
 70
     8
  0
VERTEX
  5
A29
  8
035
 10
88.934844
 20
210.657867
 30
0.0
 70
     8
  0
VERTEX
  5
A2A
  8
035
 10
88.907993
 20
210.677759
 30
0.0
 70
     8
  0
VERTEX
  5
A2B
  8
035
 10
88.879372
 20
210.700714
 30
0.0
 70
     8
  0
VERTEX
  5
A2C
  8
035
 10
89.824613
 20
211.418823
 30
0.0
 70
    16
  0
VERTEX
  5
A2D
  8
035
 10
89.900666
 20
211.2952
 30
0.0
 70
    16
  0
VERTEX
  5
A2E
  8
035
 10
89.936412
 20
211.199448
 30
0.0
 70
    16
  0
VERTEX
  5
A2F
  8
035
 10
89.962256
 20
211.120855
 30
0.0
 70
    16
  0
VERTEX
  5
A30
  8
035
 10
89.960569
 20
211.022347
 30
0.0
 70
    16
  0
VERTEX
  5
A31
  8
035
 10
89.951854
 20
210.910368
 30
0.0
 70
    16
  0
VERTEX
  5
A32
  8
035
 10
89.915843
 20
210.79206
 30
0.0
 70
    16
  0
VERTEX
  5
A33
  8
035
 10
89.849659
 20
210.698054
 30
0.0
 70
    16
  0
VERTEX
  5
A34
  8
035
 10
89.791142
 20
210.654884
 30
0.0
 70
    16
  0
VERTEX
  5
A35
  8
035
 10
89.712822
 20
210.608476
 30
0.0
 70
    16
  0
VERTEX
  5
A36
  8
035
 10
89.633744
 20
210.593019
 30
0.0
 70
    16
  0
VERTEX
  5
A37
  8
035
 10
89.517816
 20
210.57122
 30
0.0
 70
    16
  0
VERTEX
  5
A38
  8
035
 10
89.380899
 20
210.555012
 30
0.0
 70
    16
  0
VERTEX
  5
A39
  8
035
 10
89.265865
 20
210.544953
 30
0.0
 70
    16
  0
VERTEX
  5
A3A
  8
035
 10
89.177701
 20
210.556655
 30
0.0
 70
    16
  0
VERTEX
  5
A3B
  8
035
 10
89.076061
 20
210.575385
 30
0.0
 70
    16
  0
VERTEX
  5
A3C
  8
035
 10
88.958132
 20
210.635167
 30
0.0
 70
    16
  0
VERTEX
  5
A3D
  8
035
 10
88.879372
 20
210.700714
 30
0.0
 70
    16
  0
SEQEND
  5
A3E
  8
035
  0
LINE
  5
A3F
  8
035
 10
87.595645
 20
211.302101
 30
0.0
 11
86.979177
 21
210.910916
 31
0.0
  0
ARC
  5
A40
  8
035
 10
81.535263
 20
204.513745
 30
0.0
 40
8.4
 50
39.801965
 51
49.602628
  0
POLYLINE
  5
A41
  8
035
 66
     1
 10
0.0
 20
0.0
 30
0.0
 70
     4
 75
     6
  0
VERTEX
  5
A42
  8
035
 10
87.988661
 20
209.890887
 30
0.0
 70
    16
  0
VERTEX
  5
A43
  8
035
 10
87.988661
 20
209.890887
 30
0.0
 70
     8
  0
VERTEX
  5
A44
  8
035
 10
87.989996
 20
209.905968
 30
0.0
 70
     8
  0
VERTEX
  5
A45
  8
035
 10
87.991996
 20
209.919372
 30
0.0
 70
     8
  0
VERTEX
  5
A46
  8
035
 10
87.99458
 20
209.931266
 30
0.0
 70
     8
  0
VERTEX
  5
A47
  8
035
 10
87.997665
 20
209.941818
 30
0.0
 70
     8
  0
VERTEX
  5
A48
  8
035
 10
88.00117
 20
209.951195
 30
0.0
 70
     8
  0
VERTEX
  5
A49
  8
035
 10
88.005014
 20
209.959567
 30
0.0
 70
     8
  0
VERTEX
  5
A4A
  8
035
 10
88.009115
 20
209.967099
 30
0.0
 70
     8
  0
VERTEX
  5
A4B
  8
035
 10
88.013391
 20
209.97396
 30
0.0
 70
     8
  0
VERTEX
  5
A4C
  8
035
 10
88.017777
 20
209.980297
 30
0.0
 70
     8
  0
VERTEX
  5
A4D
  8
035
 10
88.022275
 20
209.986178
 30
0.0
 70
     8
  0
VERTEX
  5
A4E
  8
035
 10
88.026902
 20
209.991647
 30
0.0
 70
     8
  0
VERTEX
  5
A4F
  8
035
 10
88.031677
 20
209.996752
 30
0.0
 70
     8
  0
VERTEX
  5
A50
  8
035
 10
88.036617
 20
210.001538
 30
0.0
 70
     8
  0
VERTEX
  5
A51
  8
035
 10
88.041741
 20
210.006053
 30
0.0
 70
     8
  0
VERTEX
  5
A52
  8
035
 10
88.047067
 20
210.010343
 30
0.0
 70
     8
  0
VERTEX
  5
A53
  8
035
 10
88.052612
 20
210.014453
 30
0.0
 70
     8
  0
VERTEX
  5
A54
  8
035
 10
88.058389
 20
210.018425
 30
0.0
 70
     8
  0
VERTEX
  5
A55
  8
035
 10
88.064387
 20
210.022272
 30
0.0
 70
     8
  0
VERTEX
  5
A56
  8
035
 10
88.070592
 20
210.026006
 30
0.0
 70
     8
  0
VERTEX
  5
A57
  8
035
 10
88.076986
 20
210.029633
 30
0.0
 70
     8
  0
VERTEX
  5
A58
  8
035
 10
88.083555
 20
210.033164
 30
0.0
 70
     8
  0
VERTEX
  5
A59
  8
035
 10
88.090283
 20
210.036608
 30
0.0
 70
     8
  0
VERTEX
  5
A5A
  8
035
 10
88.097154
 20
210.039973
 30
0.0
 70
     8
  0
VERTEX
  5
A5B
  8
035
 10
88.104151
 20
210.043268
 30
0.0
 70
     8
  0
VERTEX
  5
A5C
  8
035
 10
88.111277
 20
210.046502
 30
0.0
 70
     8
  0
VERTEX
  5
A5D
  8
035
 10
88.1186
 20
210.049677
 30
0.0
 70
     8
  0
VERTEX
  5
A5E
  8
035
 10
88.126205
 20
210.052794
 30
0.0
 70
     8
  0
VERTEX
  5
A5F
  8
035
 10
88.134177
 20
210.055854
 30
0.0
 70
     8
  0
VERTEX
  5
A60
  8
035
 10
88.142603
 20
210.058859
 30
0.0
 70
     8
  0
VERTEX
  5
A61
  8
035
 10
88.151567
 20
210.06181
 30
0.0
 70
     8
  0
VERTEX
  5
A62
  8
035
 10
88.161155
 20
210.064709
 30
0.0
 70
     8
  0
VERTEX
  5
A63
  8
035
 10
88.171452
 20
210.067555
 30
0.0
 70
     8
  0
VERTEX
  5
A64
  8
035
 10
88.18252
 20
210.07036
 30
0.0
 70
     8
  0
VERTEX
  5
A65
  8
035
 10
88.194318
 20
210.073164
 30
0.0
 70
     8
  0
VERTEX
  5
A66
  8
035
 10
88.206784
 20
210.076016
 30
0.0
 70
     8
  0
VERTEX
  5
A67
  8
035
 10
88.219853
 20
210.078967
 30
0.0
 70
     8
  0
VERTEX
  5
A68
  8
035
 10
88.233462
 20
210.082065
 30
0.0
 70
     8
  0
VERTEX
  5
A69
  8
035
 10
88.247547
 20
210.08536
 30
0.0
 70
     8
  0
VERTEX
  5
A6A
  8
035
 10
88.262044
 20
210.088902
 30
0.0
 70
     8
  0
VERTEX
  5
A6B
  8
035
 10
88.27689
 20
210.092739
 30
0.0
 70
     8
  0
VERTEX
  5
A6C
  8
035
 10
88.292022
 20
210.09691
 30
0.0
 70
     8
  0
VERTEX
  5
A6D
  8
035
 10
88.307383
 20
210.101402
 30
0.0
 70
     8
  0
VERTEX
  5
A6E
  8
035
 10
88.322914
 20
210.10619
 30
0.0
 70
     8
  0
VERTEX
  5
A6F
  8
035
 10
88.338561
 20
210.111251
 30
0.0
 70
     8
  0
VERTEX
  5
A70
  8
035
 10
88.354265
 20
210.116561
 30
0.0
 70
     8
  0
VERTEX
  5
A71
  8
035
 10
88.369971
 20
210.122094
 30
0.0
 70
     8
  0
VERTEX
  5
A72
  8
035
 10
88.385621
 20
210.127828
 30
0.0
 70
     8
  0
VERTEX
  5
A73
  8
035
 10
88.401159
 20
210.133736
 30
0.0
 70
     8
  0
VERTEX
  5
A74
  8
035
 10
88.416521
 20
210.139788
 30
0.0
 70
     8
  0
VERTEX
  5
A75
  8
035
 10
88.431607
 20
210.145915
 30
0.0
 70
     8
  0
VERTEX
  5
A76
  8
035
 10
88.446312
 20
210.152041
 30
0.0
 70
     8
  0
VERTEX
  5
A77
  8
035
 10
88.46053
 20
210.158091
 30
0.0
 70
     8
  0
VERTEX
  5
A78
  8
035
 10
88.474154
 20
210.163988
 30
0.0
 70
     8
  0
VERTEX
  5
A79
  8
035
 10
88.487077
 20
210.169657
 30
0.0
 70
     8
  0
VERTEX
  5
A7A
  8
035
 10
88.499194
 20
210.175022
 30
0.0
 70
     8
  0
VERTEX
  5
A7B
  8
035
 10
88.510399
 20
210.180006
 30
0.0
 70
     8
  0
VERTEX
  5
A7C
  8
035
 10
88.520637
 20
210.184568
 30
0.0
 70
     8
  0
VERTEX
  5
A7D
  8
035
 10
88.530064
 20
210.188796
 30
0.0
 70
     8
  0
VERTEX
  5
A7E
  8
035
 10
88.538887
 20
210.192814
 30
0.0
 70
     8
  0
VERTEX
  5
A7F
  8
035
 10
88.547315
 20
210.196747
 30
0.0
 70
     8
  0
VERTEX
  5
A80
  8
035
 10
88.555554
 20
210.200715
 30
0.0
 70
     8
  0
VERTEX
  5
A81
  8
035
 10
88.563814
 20
210.204844
 30
0.0
 70
     8
  0
VERTEX
  5
A82
  8
035
 10
88.572301
 20
210.209255
 30
0.0
 70
     8
  0
VERTEX
  5
A83
  8
035
 10
88.581223
 20
210.214073
 30
0.0
 70
     8
  0
VERTEX
  5
A84
  8
035
 10
88.590734
 20
210.219389
 30
0.0
 70
     8
  0
VERTEX
  5
A85
  8
035
 10
88.600764
 20
210.225162
 30
0.0
 70
     8
  0
VERTEX
  5
A86
  8
035
 10
88.611192
 20
210.231321
 30
0.0
 70
     8
  0
VERTEX
  5
A87
  8
035
 10
88.621894
 20
210.237796
 30
0.0
 70
     8
  0
VERTEX
  5
A88
  8
035
 10
88.632747
 20
210.244514
 30
0.0
 70
     8
  0
VERTEX
  5
A89
  8
035
 10
88.643628
 20
210.251404
 30
0.0
 70
     8
  0
VERTEX
  5
A8A
  8
035
 10
88.654415
 20
210.258394
 30
0.0
 70
     8
  0
VERTEX
  5
A8B
  8
035
 10
88.664983
 20
210.265413
 30
0.0
 70
     8
  0
VERTEX
  5
A8C
  8
035
 10
88.675246
 20
210.272415
 30
0.0
 70
     8
  0
VERTEX
  5
A8D
  8
035
 10
88.685254
 20
210.279458
 30
0.0
 70
     8
  0
VERTEX
  5
A8E
  8
035
 10
88.695095
 20
210.286625
 30
0.0
 70
     8
  0
VERTEX
  5
A8F
  8
035
 10
88.704854
 20
210.294
 30
0.0
 70
     8
  0
VERTEX
  5
A90
  8
035
 10
88.714618
 20
210.301666
 30
0.0
 70
     8
  0
VERTEX
  5
A91
  8
035
 10
88.724473
 20
210.309707
 30
0.0
 70
     8
  0
VERTEX
  5
A92
  8
035
 10
88.734507
 20
210.318207
 30
0.0
 70
     8
  0
VERTEX
  5
A93
  8
035
 10
88.744804
 20
210.327248
 30
0.0
 70
     8
  0
VERTEX
  5
A94
  8
035
 10
88.755413
 20
210.336877
 30
0.0
 70
     8
  0
VERTEX
  5
A95
  8
035
 10
88.766225
 20
210.346988
 30
0.0
 70
     8
  0
VERTEX
  5
A96
  8
035
 10
88.777092
 20
210.357438
 30
0.0
 70
     8
  0
VERTEX
  5
A97
  8
035
 10
88.787864
 20
210.368084
 30
0.0
 70
     8
  0
VERTEX
  5
A98
  8
035
 10
88.798394
 20
210.378783
 30
0.0
 70
     8
  0
VERTEX
  5
A99
  8
035
 10
88.808535
 20
210.389391
 30
0.0
 70
     8
  0
VERTEX
  5
A9A
  8
035
 10
88.818137
 20
210.399766
 30
0.0
 70
     8
  0
VERTEX
  5
A9B
  8
035
 10
88.827052
 20
210.409763
 30
0.0
 70
     8
  0
VERTEX
  5
A9C
  8
035
 10
88.835165
 20
210.419272
 30
0.0
 70
     8
  0
VERTEX
  5
A9D
  8
035
 10
88.842493
 20
210.428303
 30
0.0
 70
     8
  0
VERTEX
  5
A9E
  8
035
 10
88.849085
 20
210.436896
 30
0.0
 70
     8
  0
VERTEX
  5
A9F
  8
035
 10
88.85499
 20
210.445095
 30
0.0
 70
     8
  0
VERTEX
  5
AA0
  8
035
 10
88.860258
 20
210.45294
 30
0.0
 70
     8
  0
VERTEX
  5
AA1
  8
035
 10
88.864937
 20
210.460474
 30
0.0
 70
     8
  0
VERTEX
  5
AA2
  8
035
 10
88.869077
 20
210.467738
 30
0.0
 70
     8
  0
VERTEX
  5
AA3
  8
035
 10
88.872728
 20
210.474773
 30
0.0
 70
     8
  0
VERTEX
  5
AA4
  8
035
 10
88.875936
 20
210.481615
 30
0.0
 70
     8
  0
VERTEX
  5
AA5
  8
035
 10
88.878741
 20
210.48827
 30
0.0
 70
     8
  0
VERTEX
  5
AA6
  8
035
 10
88.88118
 20
210.49474
 30
0.0
 70
     8
  0
VERTEX
  5
AA7
  8
035
 10
88.883291
 20
210.501023
 30
0.0
 70
     8
  0
VERTEX
  5
AA8
  8
035
 10
88.88511
 20
210.507121
 30
0.0
 70
     8
  0
VERTEX
  5
AA9
  8
035
 10
88.886676
 20
210.513034
 30
0.0
 70
     8
  0
VERTEX
  5
AAA
  8
035
 10
88.888024
 20
210.518762
 30
0.0
 70
     8
  0
VERTEX
  5
AAB
  8
035
 10
88.889194
 20
210.524306
 30
0.0
 70
     8
  0
VERTEX
  5
AAC
  8
035
 10
88.890217
 20
210.529673
 30
0.0
 70
     8
  0
VERTEX
  5
AAD
  8
035
 10
88.891108
 20
210.534901
 30
0.0
 70
     8
  0
VERTEX
  5
AAE
  8
035
 10
88.891877
 20
210.540036
 30
0.0
 70
     8
  0
VERTEX
  5
AAF
  8
035
 10
88.892536
 20
210.545124
 30
0.0
 70
     8
  0
VERTEX
  5
AB0
  8
035
 10
88.893094
 20
210.550209
 30
0.0
 70
     8
  0
VERTEX
  5
AB1
  8
035
 10
88.893562
 20
210.555338
 30
0.0
 70
     8
  0
VERTEX
  5
AB2
  8
035
 10
88.89395
 20
210.560556
 30
0.0
 70
     8
  0
VERTEX
  5
AB3
  8
035
 10
88.894269
 20
210.565908
 30
0.0
 70
     8
  0
VERTEX
  5
AB4
  8
035
 10
88.89452
 20
210.571455
 30
0.0
 70
     8
  0
VERTEX
  5
AB5
  8
035
 10
88.894672
 20
210.57732
 30
0.0
 70
     8
  0
VERTEX
  5
AB6
  8
035
 10
88.894685
 20
210.583641
 30
0.0
 70
     8
  0
VERTEX
  5
AB7
  8
035
 10
88.894518
 20
210.590554
 30
0.0
 70
     8
  0
VERTEX
  5
AB8
  8
035
 10
88.894132
 20
210.598198
 30
0.0
 70
     8
  0
VERTEX
  5
AB9
  8
035
 10
88.893486
 20
210.60671
 30
0.0
 70
     8
  0
VERTEX
  5
ABA
  8
035
 10
88.89254
 20
210.616228
 30
0.0
 70
     8
  0
VERTEX
  5
ABB
  8
035
 10
88.891255
 20
210.62689
 30
0.0
 70
     8
  0
VERTEX
  5
ABC
  8
035
 10
88.88962
 20
210.638698
 30
0.0
 70
     8
  0
VERTEX
  5
ABD
  8
035
 10
88.887746
 20
210.651114
 30
0.0
 70
     8
  0
VERTEX
  5
ABE
  8
035
 10
88.885774
 20
210.663466
 30
0.0
 70
     8
  0
VERTEX
  5
ABF
  8
035
 10
88.883845
 20
210.675081
 30
0.0
 70
     8
  0
VERTEX
  5
AC0
  8
035
 10
88.882099
 20
210.685286
 30
0.0
 70
     8
  0
VERTEX
  5
AC1
  8
035
 10
88.880678
 20
210.693409
 30
0.0
 70
     8
  0
VERTEX
  5
AC2
  8
035
 10
88.879722
 20
210.698775
 30
0.0
 70
     8
  0
VERTEX
  5
AC3
  8
035
 10
88.879372
 20
210.700714
 30
0.0
 70
     8
  0
VERTEX
  5
AC4
  8
035
 10
87.991263
 20
209.933488
 30
0.0
 70
    16
  0
VERTEX
  5
AC5
  8
035
 10
88.012392
 20
209.979331
 30
0.0
 70
    16
  0
VERTEX
  5
AC6
  8
035
 10
88.050079
 20
210.015869
 30
0.0
 70
    16
  0
VERTEX
  5
AC7
  8
035
 10
88.102964
 20
210.043913
 30
0.0
 70
    16
  0
VERTEX
  5
AC8
  8
035
 10
88.162975
 20
210.068091
 30
0.0
 70
    16
  0
VERTEX
  5
AC9
  8
035
 10
88.273852
 20
210.089055
 30
0.0
 70
    16
  0
VERTEX
  5
ACA
  8
035
 10
88.402959
 20
210.132123
 30
0.0
 70
    16
  0
VERTEX
  5
ACB
  8
035
 10
88.521268
 20
210.184873
 30
0.0
 70
    16
  0
VERTEX
  5
ACC
  8
035
 10
88.574364
 20
210.208425
 30
0.0
 70
    16
  0
VERTEX
  5
ACD
  8
035
 10
88.668618
 20
210.265869
 30
0.0
 70
    16
  0
VERTEX
  5
ACE
  8
035
 10
88.741063
 20
210.320578
 30
0.0
 70
    16
  0
VERTEX
  5
ACF
  8
035
 10
88.835956
 20
210.415309
 30
0.0
 70
    16
  0
VERTEX
  5
AD0
  8
035
 10
88.877426
 20
210.476765
 30
0.0
 70
    16
  0
VERTEX
  5
AD1
  8
035
 10
88.890709
 20
210.52627
 30
0.0
 70
    16
  0
VERTEX
  5
AD2
  8
035
 10
88.894899
 20
210.563988
 30
0.0
 70
    16
  0
VERTEX
  5
AD3
  8
035
 10
88.895307
 20
210.613223
 30
0.0
 70
    16
  0
VERTEX
  5
AD4
  8
035
 10
88.879372
 20
210.700714
 30
0.0
 70
    16
  0
VERTEX
  5
AD5
  8
035
 10
88.879372
 20
210.700714
 30
0.0
 70
    16
  0
SEQEND
  5
AD6
  8
035
  0
ARC
  5
AD7
  8
035
 10
81.535263
 20
204.513745
 30
0.0
 40
8.4
 50
23.751132
 51
32.265814
  0
ARC
  5
AD8
  8
035
 10
81.535263
 20
204.513745
 30
0.0
 40
9.6
 50
48.596295
 51
55.22821
  0
ARC
  5
AD9
  8
035
 10
81.535263
 20
204.513745
 30
0.0
 40
10.102066
 50
47.539807
 51
54.466542
  0
LINE
  5
ADA
  8
035
 10
87.406365
 20
212.734566
 30
0.0
 11
87.010232
 21
212.399474
 31
0.0
  0
ARC
  5
ADB
  8
035
 10
81.535263
 20
204.513745
 30
0.0
 40
9.1
 50
48.242758
 51
56.073447
  0
POLYLINE
  5
ADC
  8
035
 66
     1
 10
0.0
 20
0.0
 30
0.0
 70
     4
 75
     6
  0
VERTEX
  5
ADD
  8
035
 10
87.884323
 20
211.7144
 30
0.0
 70
    16
  0
VERTEX
  5
ADE
  8
035
 10
87.884323
 20
211.7144
 30
0.0
 70
     8
  0
VERTEX
  5
ADF
  8
035
 10
87.920771
 20
211.686799
 30
0.0
 70
     8
  0
VERTEX
  5
AE0
  8
035
 10
87.953494
 20
211.664001
 30
0.0
 70
     8
  0
VERTEX
  5
AE1
  8
035
 10
87.982933
 20
211.645466
 30
0.0
 70
     8
  0
VERTEX
  5
AE2
  8
035
 10
88.009532
 20
211.630653
 30
0.0
 70
     8
  0
VERTEX
  5
AE3
  8
035
 10
88.033732
 20
211.61902
 30
0.0
 70
     8
  0
VERTEX
  5
AE4
  8
035
 10
88.055975
 20
211.610028
 30
0.0
 70
     8
  0
VERTEX
  5
AE5
  8
035
 10
88.076704
 20
211.603136
 30
0.0
 70
     8
  0
VERTEX
  5
AE6
  8
035
 10
88.096361
 20
211.597802
 30
0.0
 70
     8
  0
VERTEX
  5
AE7
  8
035
 10
88.11531
 20
211.593564
 30
0.0
 70
     8
  0
VERTEX
  5
AE8
  8
035
 10
88.133597
 20
211.590267
 30
0.0
 70
     8
  0
VERTEX
  5
AE9
  8
035
 10
88.151191
 20
211.587833
 30
0.0
 70
     8
  0
VERTEX
  5
AEA
  8
035
 10
88.168061
 20
211.586186
 30
0.0
 70
     8
  0
VERTEX
  5
AEB
  8
035
 10
88.184175
 20
211.58525
 30
0.0
 70
     8
  0
VERTEX
  5
AEC
  8
035
 10
88.1995
 20
211.584946
 30
0.0
 70
     8
  0
VERTEX
  5
AED
  8
035
 10
88.214006
 20
211.585198
 30
0.0
 70
     8
  0
VERTEX
  5
AEE
  8
035
 10
88.227661
 20
211.585929
 30
0.0
 70
     8
  0
VERTEX
  5
AEF
  8
035
 10
88.24046
 20
211.587075
 30
0.0
 70
     8
  0
VERTEX
  5
AF0
  8
035
 10
88.252506
 20
211.588623
 30
0.0
 70
     8
  0
VERTEX
  5
AF1
  8
035
 10
88.263929
 20
211.590572
 30
0.0
 70
     8
  0
VERTEX
  5
AF2
  8
035
 10
88.274859
 20
211.592921
 30
0.0
 70
     8
  0
VERTEX
  5
AF3
  8
035
 10
88.285425
 20
211.595671
 30
0.0
 70
     8
  0
VERTEX
  5
AF4
  8
035
 10
88.295758
 20
211.598821
 30
0.0
 70
     8
  0
VERTEX
  5
AF5
  8
035
 10
88.305988
 20
211.602371
 30
0.0
 70
     8
  0
VERTEX
  5
AF6
  8
035
 10
88.316243
 20
211.60632
 30
0.0
 70
     8
  0
VERTEX
  5
AF7
  8
035
 10
88.326608
 20
211.610651
 30
0.0
 70
     8
  0
VERTEX
  5
AF8
  8
035
 10
88.336974
 20
211.615275
 30
0.0
 70
     8
  0
VERTEX
  5
AF9
  8
035
 10
88.347187
 20
211.62009
 30
0.0
 70
     8
  0
VERTEX
  5
AFA
  8
035
 10
88.357092
 20
211.62499
 30
0.0
 70
     8
  0
VERTEX
  5
AFB
  8
035
 10
88.366536
 20
211.629871
 30
0.0
 70
     8
  0
VERTEX
  5
AFC
  8
035
 10
88.375363
 20
211.634628
 30
0.0
 70
     8
  0
VERTEX
  5
AFD
  8
035
 10
88.383419
 20
211.639157
 30
0.0
 70
     8
  0
VERTEX
  5
AFE
  8
035
 10
88.39055
 20
211.643352
 30
0.0
 70
     8
  0
VERTEX
  5
AFF
  8
035
 10
88.396648
 20
211.647143
 30
0.0
 70
     8
  0
VERTEX
  5
B00
  8
035
 10
88.401797
 20
211.650589
 30
0.0
 70
     8
  0
VERTEX
  5
B01
  8
035
 10
88.406129
 20
211.65378
 30
0.0
 70
     8
  0
VERTEX
  5
B02
  8
035
 10
88.409777
 20
211.65681
 30
0.0
 70
     8
  0
VERTEX
  5
B03
  8
035
 10
88.41287
 20
211.65977
 30
0.0
 70
     8
  0
VERTEX
  5
B04
  8
035
 10
88.415542
 20
211.662751
 30
0.0
 70
     8
  0
VERTEX
  5
B05
  8
035
 10
88.417923
 20
211.665846
 30
0.0
 70
     8
  0
VERTEX
  5
B06
  8
035
 10
88.420145
 20
211.669146
 30
0.0
 70
     8
  0
VERTEX
  5
B07
  8
035
 10
88.422317
 20
211.672725
 30
0.0
 70
     8
  0
VERTEX
  5
B08
  8
035
 10
88.424447
 20
211.676583
 30
0.0
 70
     8
  0
VERTEX
  5
B09
  8
035
 10
88.426523
 20
211.680702
 30
0.0
 70
     8
  0
VERTEX
  5
B0A
  8
035
 10
88.428531
 20
211.685063
 30
0.0
 70
     8
  0
VERTEX
  5
B0B
  8
035
 10
88.430457
 20
211.689649
 30
0.0
 70
     8
  0
VERTEX
  5
B0C
  8
035
 10
88.432287
 20
211.694441
 30
0.0
 70
     8
  0
VERTEX
  5
B0D
  8
035
 10
88.434008
 20
211.699421
 30
0.0
 70
     8
  0
VERTEX
  5
B0E
  8
035
 10
88.435606
 20
211.70457
 30
0.0
 70
     8
  0
VERTEX
  5
B0F
  8
035
 10
88.437069
 20
211.709878
 30
0.0
 70
     8
  0
VERTEX
  5
B10
  8
035
 10
88.438391
 20
211.715358
 30
0.0
 70
     8
  0
VERTEX
  5
B11
  8
035
 10
88.439566
 20
211.72103
 30
0.0
 70
     8
  0
VERTEX
  5
B12
  8
035
 10
88.44059
 20
211.726914
 30
0.0
 70
     8
  0
VERTEX
  5
B13
  8
035
 10
88.441457
 20
211.733032
 30
0.0
 70
     8
  0
VERTEX
  5
B14
  8
035
 10
88.442164
 20
211.739404
 30
0.0
 70
     8
  0
VERTEX
  5
B15
  8
035
 10
88.442704
 20
211.746049
 30
0.0
 70
     8
  0
VERTEX
  5
B16
  8
035
 10
88.443074
 20
211.752989
 30
0.0
 70
     8
  0
VERTEX
  5
B17
  8
035
 10
88.443258
 20
211.760253
 30
0.0
 70
     8
  0
VERTEX
  5
B18
  8
035
 10
88.443201
 20
211.767911
 30
0.0
 70
     8
  0
VERTEX
  5
B19
  8
035
 10
88.44284
 20
211.776041
 30
0.0
 70
     8
  0
VERTEX
  5
B1A
  8
035
 10
88.442111
 20
211.784723
 30
0.0
 70
     8
  0
VERTEX
  5
B1B
  8
035
 10
88.440947
 20
211.794035
 30
0.0
 70
     8
  0
VERTEX
  5
B1C
  8
035
 10
88.439286
 20
211.804057
 30
0.0
 70
     8
  0
VERTEX
  5
B1D
  8
035
 10
88.437063
 20
211.814866
 30
0.0
 70
     8
  0
VERTEX
  5
B1E
  8
035
 10
88.434213
 20
211.826543
 30
0.0
 70
     8
  0
VERTEX
  5
B1F
  8
035
 10
88.430621
 20
211.839177
 30
0.0
 70
     8
  0
VERTEX
  5
B20
  8
035
 10
88.425967
 20
211.852905
 30
0.0
 70
     8
  0
VERTEX
  5
B21
  8
035
 10
88.419879
 20
211.867874
 30
0.0
 70
     8
  0
VERTEX
  5
B22
  8
035
 10
88.411987
 20
211.884232
 30
0.0
 70
     8
  0
VERTEX
  5
B23
  8
035
 10
88.401919
 20
211.902127
 30
0.0
 70
     8
  0
VERTEX
  5
B24
  8
035
 10
88.389303
 20
211.921706
 30
0.0
 70
     8
  0
VERTEX
  5
B25
  8
035
 10
88.373768
 20
211.943118
 30
0.0
 70
     8
  0
VERTEX
  5
B26
  8
035
 10
88.354944
 20
211.966509
 30
0.0
 70
     8
  0
VERTEX
  5
B27
  8
035
 10
87.986879
 20
211.633911
 30
0.0
 70
    16
  0
VERTEX
  5
B28
  8
035
 10
88.103078
 20
211.586945
 30
0.0
 70
    16
  0
VERTEX
  5
B29
  8
035
 10
88.237078
 20
211.581642
 30
0.0
 70
    16
  0
VERTEX
  5
B2A
  8
035
 10
88.314577
 20
211.602065
 30
0.0
 70
    16
  0
VERTEX
  5
B2B
  8
035
 10
88.402072
 20
211.648018
 30
0.0
 70
    16
  0
VERTEX
  5
B2C
  8
035
 10
88.420434
 20
211.665976
 30
0.0
 70
    16
  0
VERTEX
  5
B2D
  8
035
 10
88.437063
 20
211.702953
 30
0.0
 70
    16
  0
VERTEX
  5
B2E
  8
035
 10
88.444949
 20
211.749632
 30
0.0
 70
    16
  0
VERTEX
  5
B2F
  8
035
 10
88.441583
 20
211.816453
 30
0.0
 70
    16
  0
VERTEX
  5
B30
  8
035
 10
88.409859
 20
211.901361
 30
0.0
 70
    16
  0
VERTEX
  5
B31
  8
035
 10
88.354944
 20
211.966509
 30
0.0
 70
    16
  0
SEQEND
  5
B32
  8
035
  0
ARC
  5
B33
  8
035
 10
81.535263
 20
204.513745
 30
0.0
 40
10.8
 50
19.84671
 51
28.361392
  0
LINE
  5
B34
  8
05
 10
351.951009
 20
232.513745
 30
0.0
 11
323.299805
 21
232.513745
 31
0.0
  0
LINE
  5
B35
  8
05
 10
314.625407
 20
223.839346
 30
0.0
 11
314.625407
 21
212.590873
 31
0.0
  0
ARC
  5
B36
  8
05
 10
315.025407
 20
212.590873
 30
0.0
 40
0.4
 50
180.0
 51
340.333362
  0
ARC
  5
B37
  8
05
 10
315.025407
 20
196.436616
 30
0.0
 40
0.4
 50
19.666638
 51
180.0
  0
LINE
  5
B38
  8
05
 10
314.625407
 20
196.436616
 30
0.0
 11
314.625407
 21
185.188143
 31
0.0
  0
ARC
  5
B39
  8
05
 10
356.625407
 20
228.513745
 30
0.0
 40
5.5
 50
142.398241
 51
307.601759
  0
ARC
  5
B3A
  8
05
 10
351.951009
 20
232.113745
 30
0.0
 40
0.4
 50
322.398241
 51
90.0
  0
LINE
  5
B3B
  8
05
 10
360.625407
 20
223.839346
 30
0.0
 11
360.625407
 21
212.590873
 31
0.0
  0
ARC
  5
B3C
  8
05
 10
360.225407
 20
223.839346
 30
0.0
 40
0.4
 50
0.0
 51
127.601759
  0
ARC
  5
B3D
  8
05
 10
360.225407
 20
212.590873
 30
0.0
 40
0.4
 50
199.666638
 51
0.0
  0
ARC
  5
B3E
  8
05
 10
360.225407
 20
196.436616
 30
0.0
 40
0.4
 50
0.0
 51
160.333362
  0
LINE
  5
B3F
  8
05
 10
360.625407
 20
196.436616
 30
0.0
 11
360.625407
 21
185.188143
 31
0.0
  0
ARC
  5
B40
  8
05
 10
318.625407
 20
228.513745
 30
0.0
 40
5.5
 50
232.398241
 51
37.601759
  0
ARC
  5
B41
  8
05
 10
323.299805
 20
232.113745
 30
0.0
 40
0.4
 50
90.0
 51
217.601759
  0
ARC
  5
B42
  8
05
 10
315.025407
 20
223.839346
 30
0.0
 40
0.4
 50
52.398241
 51
180.0
  0
ARC
  5
B43
  8
05
 10
318.625407
 20
180.513745
 30
0.0
 40
5.5
 50
322.398241
 51
127.601759
  0
ARC
  5
B44
  8
05
 10
323.299805
 20
176.913745
 30
0.0
 40
0.4
 50
142.398241
 51
270.0
  0
ARC
  5
B45
  8
05
 10
315.025407
 20
185.188143
 30
0.0
 40
0.4
 50
180.0
 51
307.601759
  0
ARC
  5
B46
  8
05
 10
356.625407
 20
180.513745
 30
0.0
 40
5.5
 50
52.398241
 51
217.601759
  0
ARC
  5
B47
  8
05
 10
351.951009
 20
176.913745
 30
0.0
 40
0.4
 50
270.0
 51
37.601759
  0
ARC
  5
B48
  8
05
 10
360.225407
 20
185.188143
 30
0.0
 40
0.4
 50
232.398241
 51
0.0
  0
LINE
  5
B49
  8
05
 10
351.951009
 20
176.513745
 30
0.0
 11
323.299805
 21
176.513745
 31
0.0
  0
LINE
  5
B4A
  8
05
 10
202.155292
 20
227.533736
 30
0.0
 11
190.155292
 21
227.533736
 31
0.0
  0
LINE
  5
B4B
  8
05
 10
202.155292
 20
193.700211
 30
0.0
 11
190.155292
 21
193.700211
 31
0.0
  0
LINE
  5
B4C
  8
05
 10
202.155292
 20
185.733348
 30
0.0
 11
190.155292
 21
185.733348
 31
0.0
  0
LINE
  5
B4D
  8
025
 10
202.155292
 20
186.387535
 30
0.0
 11
190.155292
 21
186.387535
 31
0.0
  0
LINE
  5
B4E
  8
05
 10
202.155292
 20
228.113745
 30
0.0
 11
202.155292
 21
227.533736
 31
0.0
  0
LINE
  5
B4F
  8
05
 10
202.155292
 20
193.700211
 30
0.0
 11
202.155292
 21
185.733348
 31
0.0
  0
CIRCLE
  5
B50
  8
05
 10
100.535263
 20
180.513745
 30
0.0
 40
2.3
  0
CIRCLE
  5
B51
  8
05
 10
100.535263
 20
180.513745
 30
0.0
 40
3.2
  0
CIRCLE
  5
B52
  8
05
 10
62.535263
 20
228.513745
 30
0.0
 40
2.3
  0
CIRCLE
  5
B53
  8
05
 10
62.535263
 20
228.513745
 30
0.0
 40
3.2
  0
CIRCLE
  5
B54
  8
05
 10
318.625407
 20
180.513745
 30
0.0
 40
2.3
  0
CIRCLE
  5
B55
  8
05
 10
356.625407
 20
228.513745
 30
0.0
 40
2.3
  0
LINE
  5
B56
  8
BEM1
  6
BYBLOCK
 10
62.535263
 20
238.07783
 30
0.0
 11
62.535263
 21
246.593182
 31
0.0
  0
LINE
  5
B57
  8
BEM1
  6
BYBLOCK
 10
71.878579
 20
228.513745
 30
0.0
 11
93.609781
 21
228.513745
 31
0.0
  0
LINE
  5
B58
  8
BEM1
  6
BYBLOCK
 10
100.535263
 20
190.118344
 30
0.0
 11
100.535263
 21
220.243023
 31
0.0
  0
LINE
  5
B59
  8
BEM1
  6
BYBLOCK
 10
109.797733
 20
180.513745
 30
0.0
 11
121.411394
 21
180.513745
 31
0.0
  0
LINE
  5
B5A
  8
BEM1
  6
BYBLOCK
 10
100.535263
 20
234.738017
 30
0.0
 11
100.535263
 21
246.593182
 31
0.0
  0
LINE
  5
B5B
  8
BEM1
  6
BYBLOCK
 10
106.575424
 20
228.513745
 30
0.0
 11
121.411394
 21
228.513745
 31
0.0
  0
INSERT
  5
C91
  8
SCHRAFFIERT
  2
*X9
 10
44.01229
 20
-115.853829
 30
0.0
  0
LINE
  5
C92
  8
035
 10
86.997593
 20
69.674042
 30
0.0
 11
110.597593
 21
69.674042
 31
0.0
  0
LINE
  5
C93
  8
035
 10
86.997593
 20
68.674042
 30
0.0
 11
116.597593
 21
68.674042
 31
0.0
  0
LINE
  5
C94
  8
05
 10
96.197593
 20
62.974042
 30
0.0
 11
100.197593
 21
62.974042
 31
0.0
  0
LINE
  5
C95
  8
05
 10
100.197593
 20
44.474042
 30
0.0
 11
96.197593
 21
44.474042
 31
0.0
  0
LINE
  5
C96
  8
05
 10
100.197593
 20
52.874042
 30
0.0
 11
96.197593
 21
52.874042
 31
0.0
  0
LINE
  5
C97
  8
05
 10
100.197593
 20
54.474042
 30
0.0
 11
96.197593
 21
54.474042
 31
0.0
  0
LINE
  5
C98
  8
05
 10
100.197593
 20
79.474042
 30
0.0
 11
96.197593
 21
79.474042
 31
0.0
  0
LINE
  5
C99
  8
SCHRAFFIERT
 62
     3
 10
100.197593
 20
57.174042
 30
0.0
 11
88.597593
 21
57.174042
 31
0.0
  0
LINE
  5
C9A
  8
MITTE
 10
84.737593
 20
61.974042
 30
0.0
 11
152.597593
 21
61.974042
 31
0.0
  0
TEXT
  5
C9B
  8
025
 62
     3
 10
41.503323
 20
113.7222
 30
0.0
 40
3.5
  1
with Faston termination
 41
0.7
 51
15.0
  7
HELVL
  0
TEXT
  5
C9C
  8
025
 62
     3
 10
41.503323
 20
119.3222
 30
0.0
 40
3.5
  1
Triple spring loaded contact
 41
0.7
 51
15.0
  7
HELVL
  0
LINE
  5
C9D
  8
025
 10
90.553336
 20
63.73025
 30
0.0
 11
70.628303
 21
110.294305
 31
0.0
  0
LINE
  5
C9E
  8
05
 10
96.197593
 20
79.474042
 30
0.0
 11
96.197593
 21
69.674042
 31
0.0
  0
LINE
  5
C9F
  8
035
 10
88.597593
 20
69.274042
 30
0.0
 11
89.163278
 21
69.674042
 31
0.0
  0
LINE
  5
CA0
  8
035
 10
89.163278
 20
68.674042
 30
0.0
 11
88.597593
 21
69.074042
 31
0.0
  0
LINE
  5
CA1
  8
SCHRAFFIERT
 62
     3
 10
89.163278
 20
57.174042
 30
0.0
 11
86.997593
 21
59.339727
 31
0.0
  0
LINE
  5
CA2
  8
SCHRAFFIERT
 62
     3
 10
89.163278
 20
66.774042
 30
0.0
 11
86.997593
 21
64.608356
 31
0.0
  0
LINE
  5
CA3
  8
035
 10
96.197593
 20
55.274042
 30
0.0
 11
86.997593
 21
55.274042
 31
0.0
  0
LINE
  5
CA4
  8
035
 10
96.197593
 20
54.274042
 30
0.0
 11
86.997593
 21
54.274042
 31
0.0
  0
LINE
  5
CA5
  8
SCHRAFFIERT
 62
     3
 10
96.197593
 20
66.774042
 30
0.0
 11
88.597593
 21
66.774042
 31
0.0
  0
LINE
  5
CA6
  8
SCHRAFFIERT
 62
     3
 10
88.597593
 20
57.174042
 30
0.0
 11
86.597593
 21
59.174042
 31
0.0
  0
LINE
  5
CA7
  8
035
 10
86.597593
 20
54.874042
 30
0.0
 11
86.997593
 21
55.274042
 31
0.0
  0
LINE
  5
CA8
  8
035
 10
86.597593
 20
54.674042
 30
0.0
 11
86.997593
 21
54.274042
 31
0.0
  0
LINE
  5
CA9
  8
035
 10
88.597593
 20
54.274042
 30
0.0
 11
88.597593
 21
55.274042
 31
0.0
  0
LINE
  5
CAA
  8
035
 10
86.597593
 20
54.674042
 30
0.0
 11
86.597593
 21
54.874042
 31
0.0
  0
LINE
  5
CAB
  8
035
 10
88.597593
 20
54.874042
 30
0.0
 11
86.597593
 21
54.874042
 31
0.0
  0
LINE
  5
CAC
  8
035
 10
88.597593
 20
54.674042
 30
0.0
 11
86.597593
 21
54.674042
 31
0.0
  0
LINE
  5
CAD
  8
035
 10
86.597593
 20
69.274042
 30
0.0
 11
86.997593
 21
69.674042
 31
0.0
  0
LINE
  5
CAE
  8
035
 10
86.997593
 20
68.674042
 30
0.0
 11
86.597593
 21
69.074042
 31
0.0
  0
LINE
  5
CAF
  8
035
 10
86.597593
 20
69.274042
 30
0.0
 11
88.597593
 21
69.274042
 31
0.0
  0
LINE
  5
CB0
  8
035
 10
86.597593
 20
69.074042
 30
0.0
 11
88.597593
 21
69.074042
 31
0.0
  0
LINE
  5
CB1
  8
035
 10
88.597593
 20
69.274042
 30
0.0
 11
88.597593
 21
69.074042
 31
0.0
  0
LINE
  5
CB2
  8
035
 10
86.597593
 20
69.074042
 30
0.0
 11
86.597593
 21
69.274042
 31
0.0
  0
LINE
  5
CB3
  8
SCHRAFFIERT
 62
     3
 10
86.997593
 20
59.339727
 30
0.0
 11
86.597593
 21
59.174042
 31
0.0
  0
LINE
  5
CB4
  8
SCHRAFFIERT
 62
     3
 10
86.997593
 20
64.608356
 30
0.0
 11
86.597593
 21
64.774042
 31
0.0
  0
LINE
  5
CB5
  8
SCHRAFFIERT
 62
     3
 10
86.997593
 20
60.774042
 30
0.0
 11
86.997593
 21
59.339727
 31
0.0
  0
LINE
  5
CB6
  8
SCHRAFFIERT
 62
     3
 10
86.997593
 20
64.608356
 30
0.0
 11
86.997593
 21
63.174042
 31
0.0
  0
LINE
  5
CB7
  8
SCHRAFFIERT
 62
     3
 10
86.597593
 20
60.474042
 30
0.0
 11
86.597593
 21
59.174042
 31
0.0
  0
LINE
  5
CB8
  8
SCHRAFFIERT
 62
     3
 10
88.597593
 20
61.974042
 30
0.0
 11
86.597593
 21
60.474042
 31
0.0
  0
LINE
  5
CB9
  8
SCHRAFFIERT
 62
     3
 10
86.597593
 20
63.474042
 30
0.0
 11
88.597593
 21
61.974042
 31
0.0
  0
LINE
  5
CBA
  8
SCHRAFFIERT
 62
     3
 10
88.597593
 20
66.774042
 30
0.0
 11
86.597593
 21
64.774042
 31
0.0
  0
LINE
  5
CBB
  8
SCHRAFFIERT
 62
     3
 10
86.597593
 20
64.774042
 30
0.0
 11
86.597593
 21
63.474042
 31
0.0
  0
LINE
  5
CBC
  8
05
 10
96.197593
 20
57.174042
 30
0.0
 11
96.197593
 21
44.474042
 31
0.0
  0
CIRCLE
  5
CBD
  8
SCHRAFFIERT
 62
     3
 10
92.597593
 20
61.974042
 30
0.0
 40
1.2
  0
LINE
  5
CBE
  8
05
 10
96.197593
 20
68.674042
 30
0.0
 11
96.197593
 21
61.974042
 31
0.0
  0
TEXT
  5
CBF
  8
025
 62
     3
 10
150.277905
 20
116.510546
 30
0.0
 40
3.5
  1
Housing
 41
0.7
 51
15.0
  7
HELVL
  0
TEXT
  5
CC0
  8
025
 62
     3
 10
105.835658
 20
116.510546
 30
0.0
 40
3.5
  1
Spring element
 41
0.7
 51
15.0
  7
HELVL
  0
INSERT
  5
CC1
  8
SCHRAFFIERT
  2
*X12
 10
44.01229
 20
-115.853829
 30
0.0
  0
INSERT
  5
CC2
  8
SCHRAFFIERT
  2
*X11
 10
44.01229
 20
-115.853829
 30
0.0
  0
LINE
  5
CC3
  8
035
 10
146.997593
 20
70.912327
 30
0.0
 11
122.597593
 21
70.912327
 31
0.0
  0
LINE
  5
CC4
  8
035
 10
146.997593
 20
70.392712
 30
0.0
 11
122.597593
 21
70.392712
 31
0.0
  0
POLYLINE
  5
CC5
  8
035
 66
     1
 10
0.0
 20
0.0
 30
0.0
  0
VERTEX
  5
FE2
  8
035
 10
130.012684
 20
67.378945
 30
0.0
 42
-0.05589
  0
VERTEX
  5
FE3
  8
035
 10
129.165773
 20
67.103257
 30
0.0
 42
-0.043089
  0
VERTEX
  5
FE4
  8
035
 10
128.016332
 20
67.004016
 30
0.0
 42
-0.042982
  0
SEQEND
  5
FE5
  8
035
  0
LINE
  5
CC6
  8
035
 10
128.425989
 20
67.413581
 30
0.0
 11
132.276779
 21
68.963605
 31
0.0
  0
LINE
  5
CC7
  8
035
 10
128.01633
 20
67.004016
 30
0.0
 11
132.571596
 21
67.004016
 31
0.0
  0
LINE
  5
CC8
  8
05
 10
102.597593
 20
81.974042
 30
0.0
 11
152.197593
 21
81.974042
 31
0.0
  0
LINE
  5
CC9
  8
05
 10
148.597593
 20
71.174042
 30
0.0
 11
102.597593
 21
71.174042
 31
0.0
  0
LINE
  5
CCA
  8
05
 10
148.597593
 20
64.774042
 30
0.0
 11
106.197593
 21
64.774042
 31
0.0
  0
LINE
  5
CCB
  8
05
 10
106.197593
 20
74.274042
 30
0.0
 11
152.197593
 21
74.274042
 31
0.0
  0
LINE
  5
CCC
  8
05
 10
129.293132
 20
81.039731
 30
0.0
 11
127.397593
 21
79.681625
 31
0.0
  0
LINE
  5
CCD
  8
05
 10
129.326275
 20
78.562477
 30
0.0
 11
127.397593
 21
77.793799
 31
0.0
  0
POLYLINE
  5
CCE
  8
05
 66
     1
 10
0.0
 20
0.0
 30
0.0
  0
VERTEX
  5
FE6
  8
05
 10
129.397593
 20
74.473538
 30
0.0
 42
0.071521
  0
VERTEX
  5
FE7
  8
05
 10
129.236924
 20
75.591027
 30
0.0
 42
0.082954
  0
VERTEX
  5
FE8
  8
05
 10
128.811807
 20
76.468564
 30
0.0
 42
0.106734
  0
VERTEX
  5
FE9
  8
05
 10
128.124317
 20
77.098172
 30
0.0
 42
0.13298
  0
VERTEX
  5
FEA
  8
05
 10
127.397593
 20
77.294931
 30
0.0
 42
0.13298
  0
SEQEND
  5
FEB
  8
05
  0
POLYLINE
  5
CCF
  8
VERDECKT
 66
     1
 10
0.0
 20
0.0
 30
0.0
  0
VERTEX
  5
FEC
  8
VERDECKT
 10
129.32329
 20
75.573685
 30
0.0
 42
0.049581
  0
VERTEX
  5
FED
  8
VERDECKT
 10
129.397593
 20
76.321154
 30
0.0
 42
0.073021
  0
VERTEX
  5
FEE
  8
VERDECKT
 10
129.237347
 20
77.412565
 30
0.0
 42
0.084059
  0
VERTEX
  5
FEF
  8
VERDECKT
 10
128.811807
 20
78.272996
 30
0.0
 42
0.106511
  0
VERTEX
  5
FF0
  8
VERDECKT
 10
128.127111
 20
78.887667
 30
0.0
 42
0.130569
  0
VERTEX
  5
FF1
  8
VERDECKT
 10
127.397593
 20
79.081475
 30
0.0
 42
0.130569
  0
SEQEND
  5
FF2
  8
VERDECKT
  0
POLYLINE
  5
CD0
  8
VERDECKT
 66
     1
 10
0.0
 20
0.0
 30
0.0
  0
VERTEX
  5
FF3
  8
VERDECKT
 10
127.397593
 20
73.560834
 30
0.0
 42
0.130569
  0
VERTEX
  5
FF4
  8
VERDECKT
 10
128.127111
 20
73.754642
 30
0.0
 42
0.092628
  0
VERTEX
  5
FF5
  8
VERDECKT
 10
128.738701
 20
74.274042
 30
0.0
 42
0.084059
  0
SEQEND
  5
FF6
  8
VERDECKT
  0
POLYLINE
  5
CD1
  8
VERDECKT
 66
     1
 10
0.0
 20
0.0
 30
0.0
  0
VERTEX
  5
FF7
  8
VERDECKT
 10
127.397593
 20
71.652146
 30
0.0
 42
0.13298
  0
VERTEX
  5
FF8
  8
VERDECKT
 10
128.124317
 20
71.848905
 30
0.0
 42
0.106734
  0
VERTEX
  5
FF9
  8
VERDECKT
 10
128.811807
 20
72.478512
 30
0.0
 42
0.082954
  0
VERTEX
  5
FFA
  8
VERDECKT
 10
129.236924
 20
73.35605
 30
0.0
 42
0.058888
  0
VERTEX
  5
FFB
  8
VERDECKT
 10
129.392573
 20
74.274042
 30
0.0
 42
0.071521
  0
SEQEND
  5
FFC
  8
VERDECKT
  0
LINE
  5
CD2
  8
05
 10
100.197593
 20
38.374042
 30
0.0
 11
138.597593
 21
38.374042
 31
0.0
  0
LINE
  5
CD3
  8
05
 10
100.197593
 20
85.574042
 30
0.0
 11
138.597593
 21
85.574042
 31
0.0
  0
INSERT
  5
CD4
  8
SCHRAFFIERT
  2
*X10
 10
44.01229
 20
-115.853829
 30
0.0
  0
LINE
  5
CD5
  8
035
 10
113.597593
 20
71.094768
 30
0.0
 11
113.597593
 21
70.392712
 31
0.0
  0
LINE
  5
CD6
  8
035
 10
116.597593
 20
71.094768
 30
0.0
 11
116.597593
 21
70.392712
 31
0.0
  0
LINE
  5
CD7
  8
035
 10
122.597593
 20
70.912327
 30
0.0
 11
122.597593
 21
70.392712
 31
0.0
  0
LINE
  5
CD8
  8
035
 10
119.597593
 20
71.094768
 30
0.0
 11
119.597593
 21
70.392712
 31
0.0
  0
LINE
  5
CD9
  8
035
 10
110.597593
 20
71.094768
 30
0.0
 11
110.597593
 21
68.674042
 31
0.0
  0
LINE
  5
CDA
  8
05
 10
102.597593
 20
71.174042
 30
0.0
 11
102.597593
 21
69.674042
 31
0.0
  0
LINE
  5
CDB
  8
05
 10
100.197593
 20
85.574042
 30
0.0
 11
100.197593
 21
69.674042
 31
0.0
  0
LINE
  5
CDC
  8
035
 10
110.597593
 20
70.575152
 30
0.0
 11
113.597593
 21
70.392712
 31
0.0
  0
LINE
  5
CDD
  8
05
 10
100.197593
 20
61.974042
 30
0.0
 11
100.197593
 21
38.374042
 31
0.0
  0
INSERT
  5
CDE
  8
SCHRAFFIERT
  2
*X13
 10
44.01229
 20
-115.853829
 30
0.0
  0
LINE
  5
CDF
  8
05
 10
110.597593
 20
70.308016
 30
0.0
 11
102.597593
 21
70.308016
 31
0.0
  0
LINE
  5
CE0
  8
05
 10
106.197593
 20
64.774042
 30
0.0
 11
102.597593
 21
64.774042
 31
0.0
  0
LINE
  5
CE1
  8
05
 10
100.197593
 20
68.674042
 30
0.0
 11
100.197593
 21
62.974042
 31
0.0
  0
LINE
  5
CE2
  8
05
 10
102.597593
 20
68.674042
 30
0.0
 11
102.597593
 21
64.774042
 31
0.0
  0
LINE
  5
CE3
  8
05
 10
102.597593
 20
64.774042
 30
0.0
 11
102.597593
 21
61.974042
 31
0.0
  0
POINT
  5
CE4
  8
DEFPOINTS
  6
BYBLOCK
 62
     0
 10
102.597593
 20
64.774042
 30
0.0
  0
LINE
  5
CE5
  8
05
 10
106.197593
 20
64.774042
 30
0.0
 11
106.197593
 21
61.974042
 31
0.0
  0
LINE
  5
CE6
  8
035
 10
109.597593
 20
69.674042
 30
0.0
 11
109.597593
 21
68.674042
 31
0.0
  0
LINE
  5
CE7
  8
035
 10
119.597593
 20
70.575152
 30
0.0
 11
122.597593
 21
70.392712
 31
0.0
  0
LINE
  5
CE8
  8
035
 10
116.997593
 20
69.074042
 30
0.0
 11
126.277505
 21
69.074042
 31
0.0
  0
ARC
  5
CE9
  8
035
 10
116.997593
 20
68.674042
 30
0.0
 40
0.4
 50
90.0
 51
180.0
  0
LINE
  5
CEA
  8
035
 10
116.597593
 20
70.575152
 30
0.0
 11
119.597593
 21
70.392712
 31
0.0
  0
LINE
  5
CEB
  8
035
 10
116.597593
 20
68.674042
 30
0.0
 11
116.597593
 21
68.674042
 31
0.0
  0
LINE
  5
CEC
  8
035
 10
116.597593
 20
70.392712
 30
0.0
 11
116.597593
 21
68.674042
 31
0.0
  0
LINE
  5
CED
  8
035
 10
113.597593
 20
70.575152
 30
0.0
 11
116.597593
 21
70.392712
 31
0.0
  0
LINE
  5
CEE
  8
035
 10
123.736275
 20
67.978945
 30
0.0
 11
126.464597
 21
69.044324
 31
0.0
  0
LINE
  5
CEF
  8
035
 10
123.736275
 20
67.378945
 30
0.0
 11
126.556252
 21
68.482416
 31
0.0
  0
LINE
  5
CF0
  8
035
 10
121.739921
 20
67.004016
 30
0.0
 11
126.295188
 21
67.004016
 31
0.0
  0
POLYLINE
  5
CF1
  8
035
 66
     1
 10
0.0
 20
0.0
 30
0.0
  0
VERTEX
  5
FFD
  8
035
 10
123.736275
 20
67.378945
 30
0.0
 42
-0.05589
  0
VERTEX
  5
FFE
  8
035
 10
122.889364
 20
67.103257
 30
0.0
 42
-0.043089
  0
VERTEX
  5
FFF
  8
035
 10
121.739923
 20
67.004016
 30
0.0
 42
-0.042982
  0
SEQEND
  5
1000
  8
035
  0
POLYLINE
  5
CF2
  8
035
 66
     1
 10
0.0
 20
0.0
 30
0.0
  0
VERTEX
  5
1001
  8
035
 10
123.736275
 20
67.978945
 30
0.0
 42
-0.05528
  0
VERTEX
  5
1002
  8
035
 10
122.889363
 20
67.703257
 30
0.0
 42
-0.043089
  0
VERTEX
  5
1003
  8
035
 10
121.739922
 20
67.604016
 30
0.0
 42
-0.042881
  0
SEQEND
  5
1004
  8
035
  0
LINE
  5
CF3
  8
035
 10
121.597593
 20
67.605527
 30
0.0
 11
121.597593
 21
67.005527
 31
0.0
  0
POLYLINE
  5
CF4
  8
035
 66
     1
 10
0.0
 20
0.0
 30
0.0
  0
VERTEX
  5
1005
  8
035
 10
121.739923
 20
67.604016
 30
0.0
 42
-0.005306
  0
VERTEX
  5
1006
  8
035
 10
121.597593
 20
67.605527
 30
0.0
 42
-0.019283
  0
SEQEND
  5
1007
  8
035
  0
POLYLINE
  5
CF5
  8
035
 66
     1
 10
0.0
 20
0.0
 30
0.0
  0
VERTEX
  5
1008
  8
035
 10
121.739922
 20
67.004016
 30
0.0
 42
-0.005306
  0
VERTEX
  5
1009
  8
035
 10
121.597593
 20
67.005527
 30
0.0
 42
-0.019283
  0
SEQEND
  5
100A
  8
035
  0
POLYLINE
  5
CF6
  8
035
 66
     1
 10
0.0
 20
0.0
 30
0.0
  0
VERTEX
  5
100B
  8
035
 10
126.766347
 20
68.784379
 30
0.0
 42
-0.091246
  0
VERTEX
  5
100C
  8
035
 10
126.777679
 20
68.722801
 30
0.0
 42
-0.156848
  0
VERTEX
  5
100D
  8
035
 10
126.74525
 20
68.62197
 30
0.0
 42
-0.106617
  0
VERTEX
  5
100E
  8
035
 10
126.63126
 20
68.518711
 30
0.0
 42
-0.03702
  0
VERTEX
  5
100F
  8
035
 10
126.555181
 20
68.481997
 30
0.0
 42
-0.058941
  0
SEQEND
  5
1010
  8
035
  0
ARC
  5
CF7
  8
035
 10
126.28759
 20
68.53374
 30
0.0
 40
0.540396
 50
27.633049
 51
91.069336
  0
POLYLINE
  5
CF8
  8
035
 66
     1
 10
0.0
 20
0.0
 30
0.0
  0
VERTEX
  5
1011
  8
035
 10
128.425989
 20
67.413581
 30
0.0
 42
-0.017997
  0
VERTEX
  5
1012
  8
035
 10
128.29154
 20
67.351328
 30
0.0
 42
-0.056406
  0
VERTEX
  5
1013
  8
035
 10
127.444629
 20
67.103257
 30
0.0
 42
-0.043089
  0
VERTEX
  5
1014
  8
035
 10
126.295188
 20
67.004016
 30
0.0
 42
-0.043089
  0
SEQEND
  5
1015
  8
035
  0
LINE
  5
CF9
  8
035
 10
127.874001
 20
67.203091
 30
0.0
 11
127.874001
 21
67.005527
 31
0.0
  0
POLYLINE
  5
CFA
  8
035
 66
     1
 10
0.0
 20
0.0
 30
0.0
  0
VERTEX
  5
1016
  8
035
 10
128.01633
 20
67.004016
 30
0.0
 42
-0.005306
  0
VERTEX
  5
1017
  8
035
 10
127.874001
 20
67.005527
 30
0.0
 42
-0.019283
  0
SEQEND
  5
1018
  8
035
  0
LINE
  5
CFB
  8
025
 10
109.77322
 20
77.186323
 30
0.0
 11
118.298245
 21
114.577146
 31
0.0
  0
INSERT
  5
CFC
  8
SCHRAFFIERT
  2
*X8
 10
44.01229
 20
-115.853829
 30
0.0
  0
LINE
  5
CFD
  8
035
 10
113.597593
 20
70.912327
 30
0.0
 11
110.597593
 21
71.094768
 31
0.0
  0
LINE
  5
CFE
  8
05
 10
111.557593
 20
79.254042
 30
0.0
 11
114.357593
 21
77.154042
 31
0.0
  0
ARC
  5
CFF
  8
05
 10
113.397593
 20
75.874042
 30
0.0
 40
1.6
 50
233.130102
 51
53.130102
  0
LINE
  5
D00
  8
VERDECKT
 10
127.397593
 20
73.560834
 30
0.0
 11
102.597593
 21
73.560834
 31
0.0
  0
LINE
  5
D01
  8
VERDECKT
 10
127.397593
 20
71.652146
 30
0.0
 11
102.597593
 21
71.652146
 31
0.0
  0
LINE
  5
D02
  8
05
 10
106.197593
 20
79.574042
 30
0.0
 11
102.597593
 21
79.574042
 31
0.0
  0
LINE
  5
D03
  8
05
 10
102.597593
 20
83.074042
 30
0.0
 11
100.197593
 21
83.074042
 31
0.0
  0
ARC
  5
D04
  8
05
 10
100.597593
 20
83.474042
 30
0.0
 40
0.4
 50
180.0
 51
270.0
  0
POINT
  5
D05
  8
DEFPOINTS
  6
BYBLOCK
 62
     0
 10
100.597593
 20
83.074042
 30
0.0
  0
LINE
  5
D06
  8
05
 10
102.597593
 20
83.074042
 30
0.0
 11
102.597593
 21
81.974042
 31
0.0
  0
LINE
  5
D07
  8
05
 10
102.597593
 20
81.974042
 30
0.0
 11
102.597593
 21
79.574042
 31
0.0
  0
LINE
  5
D08
  8
05
 10
102.597593
 20
79.574042
 30
0.0
 11
102.597593
 21
71.174042
 31
0.0
  0
POINT
  5
D09
  8
DEFPOINTS
  6
BYBLOCK
 62
     0
 10
102.597593
 20
71.174042
 30
0.0
  0
POINT
  5
D0A
  8
DEFPOINTS
  6
BYBLOCK
 62
     0
 10
102.597593
 20
71.174042
 30
0.0
  0
LINE
  5
D0B
  8
05
 10
106.837593
 20
77.154042
 30
0.0
 11
109.637593
 21
79.254042
 31
0.0
  0
ARC
  5
D0C
  8
05
 10
107.797593
 20
75.874042
 30
0.0
 40
1.6
 50
126.869898
 51
306.869898
  0
LINE
  5
D0D
  8
05
 10
106.197593
 20
74.274042
 30
0.0
 11
106.197593
 21
79.574042
 31
0.0
  0
ARC
  5
D0E
  8
05
 10
110.597593
 20
74.724042
 30
0.0
 40
1.0
 50
53.130038
 51
126.869812
  0
LINE
  5
D0F
  8
05
 10
111.197594
 20
75.524041
 30
0.0
 11
112.437593
 21
74.594042
 31
0.0
  0
LINE
  5
D10
  8
05
 10
108.757593
 20
74.594042
 30
0.0
 11
109.997594
 21
75.524043
 31
0.0
  0
ARC
  5
D11
  8
05
 10
110.597593
 20
77.974042
 30
0.0
 40
1.6
 50
53.130102
 51
126.869898
  0
LINE
  5
D12
  8
035
 10
122.597593
 20
70.912327
 30
0.0
 11
119.597593
 21
71.094768
 31
0.0
  0
LINE
  5
D13
  8
035
 10
119.597593
 20
70.912327
 30
0.0
 11
116.597593
 21
71.094768
 31
0.0
  0
LINE
  5
D14
  8
035
 10
116.597593
 20
70.912327
 30
0.0
 11
113.597593
 21
71.094768
 31
0.0
  0
LINE
  5
D15
  8
05
 10
127.397593
 20
79.681625
 30
0.0
 11
127.397593
 21
77.294931
 31
0.0
  0
POLYLINE
  5
D16
  8
035
 66
     1
 10
0.0
 20
0.0
 30
0.0
  0
VERTEX
  5
1019
  8
035
 10
146.997593
 20
70.912327
 30
0.0
 42
-0.051099
  0
VERTEX
  5
101A
  8
035
 10
147.644682
 20
70.846023
 30
0.0
 42
-0.064948
  0
VERTEX
  5
101B
  8
035
 10
148.128964
 20
70.678013
 30
0.0
 42
-0.104203
  0
VERTEX
  5
101C
  8
035
 10
148.49992
 20
70.383333
 30
0.0
 42
-0.174705
  0
VERTEX
  5
101D
  8
035
 10
148.597593
 20
70.112327
 30
0.0
 42
-0.174705
  0
SEQEND
  5
101E
  8
035
  0
LINE
  5
D17
  8
05
 10
152.597593
 20
73.874042
 30
0.0
 11
152.597593
 21
69.374042
 31
0.0
  0
LINE
  5
D18
  8
05
 10
148.597593
 20
71.174042
 30
0.0
 11
148.597593
 21
68.974042
 31
0.0
  0
LINE
  5
D19
  8
05
 10
152.597593
 20
85.174042
 30
0.0
 11
152.597593
 21
38.774042
 31
0.0
  0
LINE
  5
D1A
  8
035
 10
140.978806
 20
67.413581
 30
0.0
 11
145.099566
 21
69.005163
 31
0.0
  0
LINE
  5
D1B
  8
05
 10
138.597593
 20
30.974042
 30
0.0
 11
146.797593
 21
30.974042
 31
0.0
  0
LINE
  5
D1C
  8
05
 10
138.597593
 20
61.974042
 30
0.0
 11
138.597593
 21
30.974042
 31
0.0
  0
LINE
  5
D1D
  8
035
 10
134.702397
 20
67.413581
 30
0.0
 11
138.687637
 21
68.984175
 31
0.0
  0
LINE
  5
D1E
  8
035
 10
136.423541
 20
67.999514
 30
0.0
 11
139.05111
 21
69.027696
 31
0.0
  0
LINE
  5
D1F
  8
035
 10
136.423541
 20
67.399514
 30
0.0
 11
139.243518
 21
68.502986
 31
0.0
  0
LINE
  5
D20
  8
035
 10
134.292738
 20
67.004016
 30
0.0
 11
138.848005
 21
67.004016
 31
0.0
  0
POLYLINE
  5
D21
  8
035
 66
     1
 10
0.0
 20
0.0
 30
0.0
  0
VERTEX
  5
101F
  8
035
 10
132.276779
 20
68.963605
 30
0.0
 42
-0.035228
  0
VERTEX
  5
1020
  8
035
 10
132.35346
 20
68.987761
 30
0.0
 42
-0.058754
  0
VERTEX
  5
1021
  8
035
 10
132.554184
 20
69.011429
 30
0.0
 42
-0.058754
  0
VERTEX
  5
1022
  8
035
 10
132.754909
 20
68.987761
 30
0.0
 42
-0.072343
  0
VERTEX
  5
1023
  8
035
 10
132.907669
 20
68.926892
 30
0.0
 42
-0.106617
  0
VERTEX
  5
1024
  8
035
 10
133.021659
 20
68.823633
 30
0.0
 42
-0.156848
  0
VERTEX
  5
1025
  8
035
 10
133.054087
 20
68.722801
 30
0.0
 42
-0.156848
  0
VERTEX
  5
1026
  8
035
 10
133.021659
 20
68.62197
 30
0.0
 42
-0.106617
  0
VERTEX
  5
1027
  8
035
 10
132.907669
 20
68.518711
 30
0.0
 42
-0.03702
  0
VERTEX
  5
1028
  8
035
 10
132.831589
 20
68.481997
 30
0.0
 42
-0.058754
  0
SEQEND
  5
1029
  8
035
  0
LINE
  5
D22
  8
035
 10
130.012684
 20
67.378945
 30
0.0
 11
132.83266
 21
68.482416
 31
0.0
  0
POLYLINE
  5
D23
  8
035
 66
     1
 10
0.0
 20
0.0
 30
0.0
  0
VERTEX
  5
102A
  8
035
 10
134.702397
 20
67.413581
 30
0.0
 42
-0.017997
  0
VERTEX
  5
102B
  8
035
 10
134.567948
 20
67.351328
 30
0.0
 42
-0.056406
  0
VERTEX
  5
102C
  8
035
 10
133.721037
 20
67.103257
 30
0.0
 42
-0.043089
  0
VERTEX
  5
102D
  8
035
 10
132.571596
 20
67.004016
 30
0.0
 42
-0.043089
  0
SEQEND
  5
102E
  8
035
  0
POLYLINE
  5
D24
  8
035
 66
     1
 10
0.0
 20
0.0
 30
0.0
  0
VERTEX
  5
102F
  8
035
 10
130.012684
 20
67.978945
 30
0.0
 42
-0.055238
  0
VERTEX
  5
1030
  8
035
 10
129.165771
 20
67.703257
 30
0.0
 42
-0.001325
  0
VERTEX
  5
1031
  8
035
 10
129.13074
 20
67.697258
 30
0.0
 42
-0.042842
  0
SEQEND
  5
1032
  8
035
  0
LINE
  5
D25
  8
035
 10
130.012684
 20
67.978945
 30
0.0
 11
132.640252
 21
69.007126
 31
0.0
  0
POLYLINE
  5
D26
  8
035
 66
     1
 10
0.0
 20
0.0
 30
0.0
  0
VERTEX
  5
1033
  8
035
 10
136.423541
 20
67.999514
 30
0.0
 42
-0.017997
  0
VERTEX
  5
1034
  8
035
 10
136.289092
 20
67.937262
 30
0.0
 42
-0.056599
  0
VERTEX
  5
1035
  8
035
 10
135.443016
 20
67.703389
 30
0.0
 42
-0.015296
  0
SEQEND
  5
1036
  8
035
  0
POLYLINE
  5
D27
  8
035
 66
     1
 10
0.0
 20
0.0
 30
0.0
  0
VERTEX
  5
1037
  8
035
 10
134.292739
 20
67.004016
 30
0.0
 42
-0.005306
  0
VERTEX
  5
1038
  8
035
 10
134.15041
 20
67.005527
 30
0.0
 42
-0.019283
  0
SEQEND
  5
1039
  8
035
  0
LINE
  5
D28
  8
035
 10
134.15041
 20
67.203091
 30
0.0
 11
134.15041
 21
67.005527
 31
0.0
  0
POLYLINE
  5
D29
  8
035
 66
     1
 10
0.0
 20
0.0
 30
0.0
  0
VERTEX
  5
103A
  8
035
 10
136.423541
 20
67.399514
 30
0.0
 42
-0.017997
  0
VERTEX
  5
103B
  8
035
 10
136.289092
 20
67.337262
 30
0.0
 42
-0.056653
  0
VERTEX
  5
103C
  8
035
 10
135.442181
 20
67.103257
 30
0.0
 42
-0.043089
  0
VERTEX
  5
103D
  8
035
 10
134.29274
 20
67.004016
 30
0.0
 42
-0.043141
  0
SEQEND
  5
103E
  8
035
  0
POLYLINE
  5
D2A
  8
035
 66
     1
 10
0.0
 20
0.0
 30
0.0
  0
VERTEX
  5
103F
  8
035
 10
140.978806
 20
67.413581
 30
0.0
 42
-0.017997
  0
VERTEX
  5
1040
  8
035
 10
140.844357
 20
67.351328
 30
0.0
 42
-0.056406
  0
VERTEX
  5
1041
  8
035
 10
139.997446
 20
67.103257
 30
0.0
 42
-0.043089
  0
VERTEX
  5
1042
  8
035
 10
138.848005
 20
67.004016
 30
0.0
 42
-0.043089
  0
SEQEND
  5
1043
  8
035
  0
POLYLINE
  5
D2B
  8
035
 66
     1
 10
0.0
 20
0.0
 30
0.0
  0
VERTEX
  5
1044
  8
035
 10
138.687637
 20
68.984175
 30
0.0
 42
-0.035228
  0
VERTEX
  5
1045
  8
035
 10
138.764317
 20
69.00833
 30
0.0
 42
-0.058754
  0
VERTEX
  5
1046
  8
035
 10
138.965042
 20
69.031998
 30
0.0
 42
-0.058754
  0
VERTEX
  5
1047
  8
035
 10
139.165766
 20
69.00833
 30
0.0
 42
-0.072343
  0
VERTEX
  5
1048
  8
035
 10
139.318526
 20
68.947461
 30
0.0
 42
-0.106617
  0
VERTEX
  5
1049
  8
035
 10
139.432517
 20
68.844202
 30
0.0
 42
-0.156848
  0
VERTEX
  5
104A
  8
035
 10
139.464945
 20
68.743371
 30
0.0
 42
-0.156848
  0
VERTEX
  5
104B
  8
035
 10
139.432517
 20
68.642539
 30
0.0
 42
-0.106617
  0
VERTEX
  5
104C
  8
035
 10
139.318526
 20
68.53928
 30
0.0
 42
-0.03702
  0
VERTEX
  5
104D
  8
035
 10
139.242447
 20
68.502567
 30
0.0
 42
-0.058754
  0
SEQEND
  5
104E
  8
035
  0
LINE
  5
D2C
  8
05
 10
147.597593
 20
61.974042
 30
0.0
 11
147.597593
 21
31.774042
 31
0.0
  0
ARC
  5
D2D
  8
05
 10
146.797593
 20
31.774042
 30
0.0
 40
0.8
 50
270.0
 51
0.0
  0
LINE
  5
D2E
  8
05
 10
147.597593
 20
38.374042
 30
0.0
 11
152.197593
 21
38.374042
 31
0.0
  0
ARC
  5
D2F
  8
05
 10
152.197593
 20
38.774042
 30
0.0
 40
0.4
 50
270.0
 51
0.0
  0
LINE
  5
D30
  8
05
 10
148.597593
 20
68.974042
 30
0.0
 11
152.197593
 21
68.974042
 31
0.0
  0
LINE
  5
D31
  8
05
 10
148.597593
 20
68.199795
 30
0.0
 11
152.597593
 21
68.199795
 31
0.0
  0
LINE
  5
D32
  8
05
 10
148.597593
 20
66.691032
 30
0.0
 11
152.597593
 21
66.691032
 31
0.0
  0
POLYLINE
  5
D33
  8
035
 66
     1
 10
0.0
 20
0.0
 30
0.0
  0
VERTEX
  5
104F
  8
035
 10
146.997593
 20
70.392712
 30
0.0
 42
-0.051099
  0
VERTEX
  5
1050
  8
035
 10
147.644682
 20
70.326407
 30
0.0
 42
-0.064948
  0
VERTEX
  5
1051
  8
035
 10
148.128964
 20
70.158398
 30
0.0
 42
-0.104203
  0
VERTEX
  5
1052
  8
035
 10
148.49992
 20
69.863718
 30
0.0
 42
-0.174705
  0
VERTEX
  5
1053
  8
035
 10
148.597593
 20
69.592712
 30
0.0
 42
-0.174705
  0
SEQEND
  5
1054
  8
035
  0
LINE
  5
D34
  8
035
 10
145.376971
 20
69.074042
 30
0.0
 11
148.597593
 21
69.074042
 31
0.0
  0
POLYLINE
  5
D35
  8
035
 66
     1
 10
0.0
 20
0.0
 30
0.0
  0
VERTEX
  5
1055
  8
035
 10
145.099566
 20
69.005163
 30
0.0
 42
-0.034643
  0
VERTEX
  5
1056
  8
035
 10
145.176246
 20
69.033507
 30
0.0
 42
-0.057967
  0
VERTEX
  5
1057
  8
035
 10
145.376971
 20
69.074455
 30
0.0
 42
-0.000166
  0
VERTEX
  5
1058
  8
035
 10
145.377543
 20
69.074455
 30
0.0
 42
-0.071226
  0
SEQEND
  5
1059
  8
035
  0
LINE
  5
D36
  8
035
 10
148.597593
 20
70.112328
 30
0.0
 11
148.597593
 21
69.074042
 31
0.0
  0
LINE
  5
D37
  8
05
 10
148.597593
 20
68.974042
 30
0.0
 11
148.597593
 21
64.774042
 31
0.0
  0
ARC
  5
D38
  8
05
 10
152.197593
 20
69.374042
 30
0.0
 40
0.4
 50
270.0
 51
0.0
  0
POINT
  5
D39
  8
DEFPOINTS
  6
BYBLOCK
 62
     0
 10
152.197593
 20
68.974042
 30
0.0
  0
LINE
  5
D3A
  8
025
 10
144.185276
 20
86.084041
 30
0.0
 11
156.070993
 21
113.464753
 31
0.0
  0
LINE
  5
D3B
  8
05
 10
152.597593
 20
81.114575
 30
0.0
 11
129.526098
 21
81.114575
 31
0.0
  0
LINE
  5
D3C
  8
05
 10
152.597593
 20
78.590901
 30
0.0
 11
129.474367
 21
78.590901
 31
0.0
  0
LINE
  5
D3D
  8
05
 10
138.597593
 20
92.974042
 30
0.0
 11
146.797593
 21
92.974042
 31
0.0
  0
LINE
  5
D3E
  8
05
 10
129.397593
 20
81.09337
 30
0.0
 11
129.397593
 21
78.583464
 31
0.0
  0
ARC
  5
D3F
  8
05
 10
129.526098
 20
80.714575
 30
0.0
 40
0.4
 50
90.0
 51
125.620643
  0
ARC
  5
D40
  8
05
 10
129.474367
 20
78.190901
 30
0.0
 40
0.4
 50
90.0
 51
111.729787
  0
POLYLINE
  5
D41
  8
05
 66
     1
 10
0.0
 20
0.0
 30
0.0
  0
VERTEX
  5
105A
  8
05
 10
128.738701
 20
74.274042
 30
0.0
 42
0.013748
  0
VERTEX
  5
105B
  8
05
 10
128.811807
 20
74.369313
 30
0.0
 42
0.084059
  0
VERTEX
  5
105C
  8
05
 10
129.237347
 20
75.229744
 30
0.0
 42
0.023356
  0
VERTEX
  5
105D
  8
05
 10
129.32329
 20
75.573685
 30
0.0
 42
0.073021
  0
SEQEND
  5
105E
  8
05
  0
POLYLINE
  5
D42
  8
05
 66
     1
 10
0.0
 20
0.0
 30
0.0
  0
VERTEX
  5
105F
  8
05
 10
129.392573
 20
74.274042
 30
0.0
 42
0.01258
  0
VERTEX
  5
1060
  8
05
 10
129.397593
 20
74.473538
 30
0.0
 42
0.071521
  0
SEQEND
  5
1061
  8
05
  0
LINE
  5
D43
  8
VERDECKT
 10
129.397593
 20
76.321154
 30
0.0
 11
129.397593
 21
74.457865
 31
0.0
  0
POINT
  5
D44
  8
DEFPOINTS
  6
BYBLOCK
 62
     0
 10
129.397593
 20
74.473538
 30
0.0
  0
LINE
  5
D45
  8
05
 10
138.597593
 20
92.974042
 30
0.0
 11
138.597593
 21
85.574042
 31
0.0
  0
ARC
  5
D46
  8
05
 10
152.197593
 20
73.874042
 30
0.0
 40
0.4
 50
0.0
 51
90.0
  0
ARC
  5
D47
  8
05
 10
152.197593
 20
73.874042
 30
0.0
 40
0.4
 50
0.0
 51
90.0
  0
LINE
  5
D48
  8
05
 10
152.597593
 20
82.374041
 30
0.0
 11
152.597593
 21
73.874042
 31
0.0
  0
ARC
  5
D49
  8
05
 10
152.197593
 20
82.374042
 30
0.0
 40
0.4
 50
270.0
 51
0.0
  0
POINT
  5
D4A
  8
DEFPOINTS
  6
BYBLOCK
 62
     0
 10
152.197593
 20
81.974042
 30
0.0
  0
POINT
  5
D4B
  8
DEFPOINTS
  6
BYBLOCK
 62
     0
 10
152.197593
 20
74.274042
 30
0.0
  0
LINE
  5
D4C
  8
05
 10
147.597593
 20
85.574042
 30
0.0
 11
152.197593
 21
85.574042
 31
0.0
  0
ARC
  5
D4D
  8
05
 10
146.797593
 20
92.174042
 30
0.0
 40
0.8
 50
360.0
 51
90.0
  0
LINE
  5
D4E
  8
05
 10
147.597593
 20
92.174042
 30
0.0
 11
147.597593
 21
85.574042
 31
0.0
  0
ARC
  5
D4F
  8
05
 10
152.197593
 20
85.174042
 30
0.0
 40
0.4
 50
0.0
 51
90.0
  0
LINE
  5
D51
  8
05
 10
112.197593
 20
51.160508
 30
0.0
 11
100.197593
 21
51.160508
 31
0.0
  0
LINE
  5
D52
  8
05
 10
112.197593
 20
43.193645
 30
0.0
 11
100.197593
 21
43.193645
 31
0.0
  0
LINE
  5
D53
  8
025
 10
112.197593
 20
43.847832
 30
0.0
 11
100.197593
 21
43.847832
 31
0.0
  0
LINE
  5
D54
  8
05
 10
112.197593
 20
51.160508
 30
0.0
 11
112.197593
 21
43.193645
 31
0.0
  0
LINE
  5
D5B
  8
BEM1
  6
BYBLOCK
 10
107.535263
 20
236.727305
 30
0.0
 11
107.535263
 21
257.013731
 31
0.0
  0
LINE
  5
E95
  8
05
 10
329.525407
 20
207.513745
 30
0.0
 11
331.125407
 21
207.513745
 31
0.0
  0
LINE
  5
E96
  8
05
 10
331.125407
 20
203.513745
 30
0.0
 11
331.125407
 21
187.013745
 31
0.0
  0
LINE
  5
E97
  8
05
 10
329.525407
 20
201.513745
 30
0.0
 11
331.125407
 21
201.513745
 31
0.0
  0
LINE
  5
EAA
  8
BEM1
 62
     4
 10
186.155292
 20
222.813745
 30
0.0
 11
186.155292
 21
245.728041
 31
0.0
  0
LINE
  5
EAB
  8
BEM1
 62
     4
 10
190.155292
 20
228.333736
 30
0.0
 11
190.155292
 21
245.728041
 31
0.0
  0
LINE
  5
EAC
  8
BEM1
 62
     4
 10
182.655292
 20
244.928041
 30
0.0
 11
179.155292
 21
244.928041
 31
0.0
  0
LINE
  5
EAD
  8
BEM1
 62
     4
 10
193.655292
 20
244.928041
 30
0.0
 11
197.155292
 21
244.928041
 31
0.0
  0
TEXT
  8
0
  40
3.5
  5
1063
  62
3
  72
0
  71
0
 10
189.738
 20
244.428
 30
0.000000
  1
2.00 [0.079"]
  0
LINE
  5
EAF
  8
BEM1
 62
     4
 10
186.155292
 20
244.928041
 30
0.0
 11
190.155292
 21
244.928041
 31
0.0
  0
SOLID
  5
EB0
  8
BEM1
 62
     4
 10
182.655292
 20
245.511374
 30
0.0
 11
182.655292
 21
244.344707
 31
0.0
 12
186.155292
 22
244.928041
 32
0.0
 13
186.155292
 23
244.928041
 33
0.0
  0
SOLID
  5
EB1
  8
BEM1
 62
     4
 10
193.655292
 20
245.511374
 30
0.0
 11
193.655292
 21
244.344707
 31
0.0
 12
190.155292
 22
244.928041
 32
0.0
 13
190.155292
 23
244.928041
 33
0.0
  0
LINE
  5
EB8
  8
BEM1
 62
     4
 10
186.155292
 20
222.813745
 30
0.0
 11
186.155292
 21
253.728041
 31
0.0
  0
LINE
  5
EB9
  8
BEM1
 62
     4
 10
242.555292
 20
228.513745
 30
0.0
 11
242.555292
 21
245.76475
 31
0.0
  0
LINE
  5
EBA
  8
BEM1
 62
     4
 10
189.655292
 20
252.928041
 30
0.0
 11
239.055292
 21
252.928041
 31
0.0
  0
SOLID
  5
EBB
  8
BEM1
 62
     4
 10
189.655292
 20
253.511374
 30
0.0
 11
189.655292
 21
252.344707
 31
0.0
 12
186.155292
 22
252.928041
 32
0.0
 13
186.155292
 23
252.928041
 33
0.0
  0
SOLID
  5
EBC
  8
BEM1
 62
     4
 10
239.055292
 20
253.511374
 30
0.0
 11
239.055292
 21
252.344707
 31
0.0
 12
242.555292
 22
252.928041
 32
0.0
 13
242.555292
 23
252.928041
 33
0.0
  0
TEXT
  8
0
  40
3.5
  5
1064
  62
3
  72
0
  71
0
 10
214.355
 20
251.128
 30
0.000000
  1
28.20 [1.110"]
  0
LINE
  5
EBE
  8
BEM1
 62
     4
 10
242.555292
 20
251.227499
 30
0.0
 11
242.555292
 21
253.728041
 31
0.0
  0
LINE
  5
EBF
  8
BEM1
 62
     4
 10
186.155292
 20
186.213745
 30
0.0
 11
186.155292
 21
168.097311
 31
0.0
  0
LINE
  5
EC0
  8
BEM1
 62
     4
 10
228.555292
 20
172.713745
 30
0.0
 11
228.555292
 21
156.856925
 31
0.0
  0
LINE
  5
EC1
  8
BEM1
 62
     4
 10
189.655292
 20
157.656925
 30
0.0
 11
225.055292
 21
157.656925
 31
0.0
  0
SOLID
  5
EC2
  8
BEM1
 62
     4
 10
189.655292
 20
158.240258
 30
0.0
 11
189.655292
 21
157.073592
 31
0.0
 12
186.155292
 22
157.656925
 32
0.0
 13
186.155292
 23
157.656925
 33
0.0
  0
SOLID
  5
EC3
  8
BEM1
 62
     4
 10
225.055292
 20
158.240258
 30
0.0
 11
225.055292
 21
157.073592
 31
0.0
 12
228.555292
 22
157.656925
 32
0.0
 13
228.555292
 23
157.656925
 33
0.0
  0
TEXT
  8
0
  40
3.5
  5
1065
  62
3
  72
0
  71
0
 10
207.355
 20
155.857
 30
0.000000
  1
21.20 [0.835"]
  0
LINE
  5
EC5
  8
BEM1
 62
     4
 10
237.555292
 20
173.513745
 30
0.0
 11
237.555292
 21
156.856925
 31
0.0
  0
LINE
  5
EC6
  8
BEM1
 62
     4
 10
225.055292
 20
157.656925
 30
0.0
 11
221.555292
 21
157.656925
 31
0.0
  0
LINE
  5
EC7
  8
BEM1
 62
     4
 10
241.055292
 20
157.656925
 30
0.0
 11
265.917836
 21
157.656925
 31
0.0
  0
TEXT
  8
0
  40
3.5
  5
1066
  62
3
  72
0
  71
0
 10
252.287
 20
156.084
 30
0.000000
  1
4.50 [0.177"]
  0
LINE
  5
EC9
  8
BEM1
 62
     4
 10
228.555292
 20
157.656925
 30
0.0
 11
237.555292
 21
157.656925
 31
0.0
  0
SOLID
  5
ECA
  8
BEM1
 62
     4
 10
225.055292
 20
158.240258
 30
0.0
 11
225.055292
 21
157.073592
 31
0.0
 12
228.555292
 22
157.656925
 32
0.0
 13
228.555292
 23
157.656925
 33
0.0
  0
SOLID
  5
ECB
  8
BEM1
 62
     4
 10
241.055292
 20
158.240258
 30
0.0
 11
241.055292
 21
157.073592
 31
0.0
 12
237.555292
 22
157.656925
 32
0.0
 13
237.555292
 23
157.656925
 33
0.0
  0
LINE
  5
ECF
  8
BEM1
 62
     4
 10
186.155292
 20
164.986326
 30
0.0
 11
186.155292
 21
156.856925
 31
0.0
  0
ENDSEC
  0
EOF
