999
DXF file: nc3fxs.dxf
999
Pro/ENGINEER 2001040 by Parametric Technology Corporation
0
SECTION
2
HEADER
9
$ACADVER
1
AC1012
9
$EXTMAX
10
210.0000000000
20
297.0000000000
9
$EXTMIN
10
0.0000000000
20
0.0000000000
9
$LIMMIN
10
0.0000000000
20
0.0000000000
9
$LIMMAX
10
210.0000000000
20
297.0000000000
9
$VIEWCTR
10
105.0000000000
20
148.5000000000
9
$VIEWSIZE
40
297.0000000000
9
$CLAYER
8
0
9
$LTSCALE
40
19.3600000000
9
$CELTYPE
6
BYLAYER
9
$DIMSCALE
40
1
9
$DIMASZ
40
3.5000000000
9
$DIMEXO
40
2.2000000000
9
$DIMDLI
40
13.3760000000
9
$DIMEXE
40
6.3360000000
9
$DIMCEN
40
3.1680000000
9
$DIMTXT
40
3.9776785714
9
$DIMLFAC
40
1.0000000000
0
ENDSEC
0
SECTION
2
CLASSES
0
ENDSEC
0
SECTION
2
TABLES
0
TABLE
2
VPORT
5
1F4
100
AcDbSymbolTable
70
2
0
VPORT
5
1F5
100
AcDbSymbolTableRecord
100
AcDbViewportTableRecord
2
*ACTIVE
70
0
10
0.0
20
0.0
11
1.0
21
1.0
12
105.0000000000
22
148.5000000000
13
0.0
23
0.0
14
1.0
24
1.0
15
0.0
25
0.0
16
0.0
26
0.0
36
1.0
17
0.0
27
0.0
37
0.0
40
297.0000000000
41
0.7070707071
42
50.0
43
0.0
44
0.0
50
0.0
51
0.0
71
0
72
100
73
1
74
1
75
0
76
0
77
0
78
0
0
ENDTAB
0
TABLE
2
LTYPE
5
1F6
100
AcDbSymbolTable
70
6
0
LTYPE
5
1F7
100
AcDbSymbolTableRecord
100
AcDbLinetypeTableRecord
2
BYBLOCK
70
0
3

72
65
73
0
40
0.0
0
LTYPE
5
1F8
100
AcDbSymbolTableRecord
100
AcDbLinetypeTableRecord
2
BYLAYER
70
0
3

72
65
73
0
40
0.0
0
LTYPE
5
1F9
100
AcDbSymbolTableRecord
100
AcDbLinetypeTableRecord
2
CONTINUOUS
70
64
3
Solid line
72
65
73
0
40
0
0
LTYPE
5
1FA
100
AcDbSymbolTableRecord
100
AcDbLinetypeTableRecord
2
CENTER
70
64
3
____ _ ____ _ ____ _ ____ _ ____ _ ____ _ ____
72
65
73
4
40
0.6
49
0.375
74
0
49
-0.075
74
0
49
0.075
74
0
49
-0.075
74
0
0
LTYPE
5
1FB
100
AcDbSymbolTableRecord
100
AcDbLinetypeTableRecord
2
HIDDEN
70
64
3
- - - - - - - - - - - - - - - - - - - -
72
65
73
2
40
0.2
49
0.1
74
0
49
-0.1
74
0
0
LTYPE
5
1FC
100
AcDbSymbolTableRecord
100
AcDbLinetypeTableRecord
2
PHANTOM
70
64
3
_____ _ _ _____ _ _ _____ _ _ _____
72
65
73
6
40
0.8
49
0.45
74
0
49
-0.05
74
0
49
0.1
74
0
49
-0.05
74
0
49
0.1
74
0
49
-0.05
74
0
0
LTYPE
5
1FD
100
AcDbSymbolTableRecord
100
AcDbLinetypeTableRecord
2
DOT
70
64
3
. . . . . . . . . . . . . . . . . . . .
72
65
73
2
40
0.2
49
0.1
74
0
49
-0.1
74
0
0
LTYPE
5
1FE
100
AcDbSymbolTableRecord
100
AcDbLinetypeTableRecord
2
DASHED
70
64
3
- - - - - - - - - - - - - - - - - - - -
72
65
73
2
40
0.2
49
0.1
74
0
49
-0.1
74
0
0
ENDTAB
0
TABLE
2
LAYER
5
1FF
100
AcDbSymbolTable
70
36
0
LAYER
5
200
100
AcDbSymbolTableRecord
100
AcDbLayerTableRecord
2
0
70
0
62
7
6
CONTINUOUS
0
LAYER
5
201
100
AcDbSymbolTableRecord
100
AcDbLayerTableRecord
2
DEFAULT_1
70
0
62
7
6
CENTER
0
LAYER
5
202
100
AcDbSymbolTableRecord
100
AcDbLayerTableRecord
2
DEFAULT_2
70
0
62
8
6
HIDDEN
0
LAYER
5
203
100
AcDbSymbolTableRecord
100
AcDbLayerTableRecord
2
DEFAULT_3
70
0
62
7
6
PHANTOM
0
LAYER
5
204
100
AcDbSymbolTableRecord
100
AcDbLayerTableRecord
2
0
70
0
62
7
6
CONTINUOUS
0
LAYER
5
205
100
AcDbSymbolTableRecord
100
AcDbLayerTableRecord
2
025
70
0
62
7
6
CONTINUOUS
0
LAYER
5
206
100
AcDbSymbolTableRecord
100
AcDbLayerTableRecord
2
035
70
0
62
7
6
CONTINUOUS
0
LAYER
5
207
100
AcDbSymbolTableRecord
100
AcDbLayerTableRecord
2
05
70
0
62
7
6
CONTINUOUS
0
LAYER
5
208
100
AcDbSymbolTableRecord
100
AcDbLayerTableRecord
2
07
70
0
62
7
6
CONTINUOUS
0
LAYER
5
209
100
AcDbSymbolTableRecord
100
AcDbLayerTableRecord
2
ASHADE
70
0
62
7
6
CONTINUOUS
0
LAYER
5
20A
100
AcDbSymbolTableRecord
100
AcDbLayerTableRecord
2
BEM1
70
0
62
7
6
CONTINUOUS
0
LAYER
5
20B
100
AcDbSymbolTableRecord
100
AcDbLayerTableRecord
2
DEFPOINTS
70
0
62
7
6
CONTINUOUS
0
LAYER
5
20C
100
AcDbSymbolTableRecord
100
AcDbLayerTableRecord
2
MITTE
70
0
62
7
6
CONTINUOUS
0
LAYER
5
20D
100
AcDbSymbolTableRecord
100
AcDbLayerTableRecord
2
RAHMEN
70
0
62
7
6
CONTINUOUS
0
LAYER
5
20E
100
AcDbSymbolTableRecord
100
AcDbLayerTableRecord
2
SCHRAFFIERT
70
0
62
7
6
CONTINUOUS
0
ENDTAB
0
TABLE
2
STYLE
5
20F
100
AcDbSymbolTable
70
1
0
STYLE
5
210
100
AcDbSymbolTableRecord
100
AcDbTextStyleTableRecord
2
STANDARD
70
0
40
0.0
41
0.80
50
0.0
71
0
42
0.2
3
txt
4

0
ENDTAB
0
TABLE
2
VIEW
5
211
100
AcDbSymbolTable
70
0
0
ENDTAB
0
TABLE
2
UCS
5
212
100
AcDbSymbolTable
70
0
0
ENDTAB
0
TABLE
2
APPID
5
213
100
AcDbSymbolTable
70
1
0
APPID
5
214
100
AcDbSymbolTableRecord
100
AcDbRegAppTableRecord
2
ACAD
70
0
0
ENDTAB
0
TABLE
2
DIMSTYLE
5
215
100
AcDbSymbolTable
0
DIMSTYLE
105
216
100
AcDbSymbolTableRecord
100
AcDbDimStyleTableRecord
2
STANDARD
70
0
3

4

5

6

7

40
1.0
41
0.18
42
0.0625
43
0.38
44
0.18
45
0.0
46
0.0
47
0.0
48
0.0
140
0.18
141
0.09
142
0.0
143
25.4
144
1.0
145
0.0
146
1.0
147
0.09
71
0
72
0
73
1
74
1
75
0
76
0
77
0
78
0
170
0
171
2
172
0
173
0
174
0
175
0
176
0
177
0
178
0
270
2
271
4
272
4
273
2
274
2
340
210
275
0
280
0
281
0
282
0
283
1
284
0
285
0
286
0
287
3
288
0
0
ENDTAB
0
TABLE
2
BLOCK_RECORD
5
217
100
AcDbSymbolTable
70
0
0
BLOCK_RECORD
5
218
100
AcDbSymbolTableRecord
100
AcDbBlockTableRecord
2
*MODEL_SPACE
0
BLOCK_RECORD
5
219
100
AcDbSymbolTableRecord
100
AcDbBlockTableRecord
2
*PAPER_SPACE
0
ENDTAB
0
ENDSEC
0
SECTION
2
BLOCKS
0
BLOCK
5
21A
100
AcDbEntity
8
0
100
AcDbBlockBegin
2
*MODEL_SPACE
70
0
10
0.0000000000
20
0.0000000000
3
*MODEL_SPACE
1

3
*MODEL_SPACE
1

0
ENDBLK
5
21B
100
AcDbEntity
8
0
100
AcDbBlockEnd
0
BLOCK
5
21C
100
AcDbEntity
8
0
100
AcDbBlockBegin
2
*PAPER_SPACE
70
0
10
0.0000000000
20
0.0000000000
3
*PAPER_SPACE
1

3
*PAPER_SPACE
1

0
ENDBLK
5
21D
100
AcDbEntity
8
0
100
AcDbBlockEnd
0
ENDSEC
0
SECTION
2
ENTITIES
0
LINE
5
21E
100
AcDbEntity
8
0
100
AcDbLine
62
7
6
CONTINUOUS
10
0.0000000000
20
0.0000000000
11
210.0000000000
21
0.0000000000
0
LINE
5
21F
100
AcDbEntity
8
0
100
AcDbLine
62
7
6
CONTINUOUS
10
210.0000000000
20
0.0000000000
11
210.0000000000
21
297.0000000000
0
LINE
5
220
100
AcDbEntity
8
0
100
AcDbLine
62
7
6
CONTINUOUS
10
0.0000000000
20
297.0000000000
11
210.0000000000
21
297.0000000000
0
LINE
5
221
100
AcDbEntity
8
0
100
AcDbLine
62
7
6
CONTINUOUS
10
0.0000000000
20
0.0000000000
11
0.0000000000
21
297.0000000000
0
LINE
5
222
100
AcDbEntity
8
MITTE
100
AcDbLine
62
4
6
CENTER
10
65.4761770000
20
253.7907000000
11
65.4761770000
21
69.2557230000
0
LINE
5
223
100
AcDbEntity
8
MITTE
100
AcDbLine
62
4
6
CENTER
10
143.8932280000
20
253.0853500000
11
143.8932280000
21
69.2557230000
0
LINE
5
224
100
AcDbEntity
8
RAHMEN
100
AcDbLine
62
2
6
CONTINUOUS
10
205.0000000000
20
5.0000000000
11
205.0000000000
21
292.0000000000
0
LINE
5
225
100
AcDbEntity
8
RAHMEN
100
AcDbLine
62
2
6
CONTINUOUS
10
205.0000000000
20
292.0000000000
11
5.0000000000
21
292.0000000000
0
LINE
5
226
100
AcDbEntity
8
RAHMEN
100
AcDbLine
62
2
6
CONTINUOUS
10
5.0000000000
20
292.0000000000
11
5.0000000000
21
5.0000000000
0
LINE
5
227
100
AcDbEntity
8
RAHMEN
100
AcDbLine
62
2
6
CONTINUOUS
10
5.0000000000
20
5.0000000000
11
205.0000000000
21
5.0000000000
0
LINE
5
228
100
AcDbEntity
8
05
100
AcDbLine
62
2
6
CONTINUOUS
10
154.0000000000
20
5.0000000000
11
154.0000000000
21
51.0000000000
0
LINE
5
229
100
AcDbEntity
8
05
100
AcDbLine
62
2
6
CONTINUOUS
10
188.0000000000
20
14.0000000000
11
188.0000000000
21
51.0000000000
0
LINE
5
22A
100
AcDbEntity
8
05
100
AcDbLine
62
2
6
CONTINUOUS
10
173.0000000000
20
31.0000000000
11
173.0000000000
21
51.0000000000
0
LINE
5
22B
100
AcDbEntity
8
05
100
AcDbLine
62
2
6
CONTINUOUS
10
72.0000000000
20
46.0000000000
11
113.0000000000
21
46.0000000000
0
LINE
5
22C
100
AcDbEntity
8
05
100
AcDbLine
62
2
6
CONTINUOUS
10
60.0000000000
20
5.0000000000
11
60.0000000000
21
51.0000000000
0
LINE
5
22D
100
AcDbEntity
8
05
100
AcDbLine
62
2
6
CONTINUOUS
10
47.0000000000
20
5.0000000000
11
47.0000000000
21
51.0000000000
0
LINE
5
22E
100
AcDbEntity
8
05
100
AcDbLine
62
2
6
CONTINUOUS
10
5.0000000000
20
11.0000000000
11
72.0000000000
21
11.0000000000
0
LINE
5
22F
100
AcDbEntity
8
05
100
AcDbLine
62
2
6
CONTINUOUS
10
72.0000000000
20
38.0000000000
11
113.0000000000
21
38.0000000000
0
LINE
5
230
100
AcDbEntity
8
05
100
AcDbLine
62
2
6
CONTINUOUS
10
14.0000000000
20
5.0000000000
11
14.0000000000
21
51.0000000000
0
LINE
5
231
100
AcDbEntity
8
05
100
AcDbLine
62
2
6
CONTINUOUS
10
72.0000000000
20
5.0000000000
11
72.0000000000
21
51.0000000000
0
LINE
5
232
100
AcDbEntity
8
05
100
AcDbLine
62
2
6
CONTINUOUS
10
113.0000000000
20
31.0000000000
11
113.0000000000
21
51.0000000000
0
LINE
5
233
100
AcDbEntity
8
05
100
AcDbLine
62
2
6
CONTINUOUS
10
136.0000000000
20
31.0000000000
11
136.0000000000
21
51.0000000000
0
LINE
5
234
100
AcDbEntity
8
05
100
AcDbLine
62
2
6
CONTINUOUS
10
205.0000000000
20
5.0000000000
11
205.0000000000
21
51.0000000000
0
LINE
5
235
100
AcDbEntity
8
05
100
AcDbLine
62
2
6
CONTINUOUS
10
5.0000000000
20
51.0000000000
11
5.0000000000
21
5.0000000000
0
LINE
5
236
100
AcDbEntity
8
05
100
AcDbLine
62
2
6
CONTINUOUS
10
205.0000000000
20
14.0000000000
11
72.0000000000
21
14.0000000000
0
LINE
5
237
100
AcDbEntity
8
05
100
AcDbLine
62
2
6
CONTINUOUS
10
205.0000000000
20
23.0000000000
11
154.0000000000
21
23.0000000000
0
LINE
5
238
100
AcDbEntity
8
05
100
AcDbLine
62
2
6
CONTINUOUS
10
205.0000000000
20
31.0000000000
11
72.0000000000
21
31.0000000000
0
LINE
5
239
100
AcDbEntity
8
05
100
AcDbLine
62
2
6
CONTINUOUS
10
205.0000000000
20
36.0000000000
11
154.0000000000
21
36.0000000000
0
LINE
5
23A
100
AcDbEntity
8
05
100
AcDbLine
62
2
6
CONTINUOUS
10
205.0000000000
20
41.0000000000
11
154.0000000000
21
41.0000000000
0
LINE
5
23B
100
AcDbEntity
8
05
100
AcDbLine
62
2
6
CONTINUOUS
10
205.0000000000
20
46.0000000000
11
154.0000000000
21
46.0000000000
0
LINE
5
23C
100
AcDbEntity
8
05
100
AcDbLine
62
2
6
CONTINUOUS
10
205.0000000000
20
51.0000000000
11
5.0000000000
21
51.0000000000
0
LINE
5
23D
100
AcDbEntity
8
05
100
AcDbLine
62
2
6
CONTINUOUS
10
48.4761770000
20
120.6439770000
11
46.4761770000
21
175.6439780000
0
LINE
5
23E
100
AcDbEntity
8
05
100
AcDbLine
62
2
6
CONTINUOUS
10
82.4761770000
20
120.6439770000
11
84.4761770000
21
175.6439780000
0
LINE
5
23F
100
AcDbEntity
8
05
100
AcDbLine
62
2
6
CONTINUOUS
10
126.8932280000
20
120.6439770000
11
124.8932280000
21
175.6439780000
0
LINE
5
240
100
AcDbEntity
8
05
100
AcDbLine
62
2
6
CONTINUOUS
10
160.8932280000
20
120.6439770000
11
162.8932280000
21
175.6439780000
0
LINE
5
241
100
AcDbEntity
8
05
100
AcDbLine
62
2
6
CONTINUOUS
10
160.7569330000
20
118.7838110000
11
127.2056830000
21
118.7838110000
0
LINE
5
242
100
AcDbEntity
8
05
100
AcDbLine
62
2
6
CONTINUOUS
10
128.0834490000
20
111.6439770000
11
143.8932280000
21
111.6439770000
0
LINE
5
243
100
AcDbEntity
8
05
100
AcDbLine
62
2
6
CONTINUOUS
10
136.7730900000
20
71.6439780000
11
143.8932280000
21
71.6439780000
0
LINE
5
244
100
AcDbEntity
8
05
100
AcDbLine
62
2
6
CONTINUOUS
10
128.0834460000
20
111.6439770000
11
143.8932280000
21
111.6439770000
0
LINE
5
245
100
AcDbEntity
8
05
100
AcDbLine
62
2
6
CONTINUOUS
10
159.6709640000
20
106.5048040000
11
160.2971680000
21
110.9604730000
0
ARC
5
246
100
AcDbEntity
8
05
100
AcDbCircle
62
2
6
CONTINUOUS
10
155.3077160000
20
84.6439780000
40
1.0000000000
100
AcDbArc
50
90.0000000000
51
270.0000000000
0
ARC
5
247
100
AcDbEntity
8
05
100
AcDbCircle
62
2
6
CONTINUOUS
10
151.0133660000
20
74.6439780000
40
3.0000000000
100
AcDbArc
50
270.0000000000
51
352.0000000000
0
LINE
5
248
100
AcDbEntity
8
05
100
AcDbLine
62
2
6
CONTINUOUS
10
151.0133660000
20
71.6439780000
11
143.8932280000
21
71.6439780000
0
LINE
5
249
100
AcDbEntity
8
05
100
AcDbLine
62
2
6
CONTINUOUS
10
154.7455530000
20
79.6439780000
11
153.9841700000
21
74.2264580000
0
ARC
5
24A
100
AcDbEntity
8
05
100
AcDbCircle
62
2
6
CONTINUOUS
10
155.3077160000
20
82.6439780000
40
1.0000000000
100
AcDbArc
50
270.0000000000
51
90.0000000000
0
ARC
5
24B
100
AcDbEntity
8
05
100
AcDbCircle
62
2
6
CONTINUOUS
10
154.7455530000
20
80.6439780000
40
1.0000000000
100
AcDbArc
50
90.0000000000
51
270.0000000000
0
ARC
5
24C
100
AcDbEntity
8
05
100
AcDbCircle
62
2
6
CONTINUOUS
10
157.5563690000
20
100.6439770000
40
1.0000000000
100
AcDbArc
50
90.0000000000
51
270.0000000000
0
ARC
5
24D
100
AcDbEntity
8
05
100
AcDbCircle
62
2
6
CONTINUOUS
10
156.9942060000
20
96.6439770000
40
1.0000000000
100
AcDbArc
50
90.0000000000
51
270.0000000000
0
ARC
5
24E
100
AcDbEntity
8
05
100
AcDbCircle
62
2
6
CONTINUOUS
10
156.4320430000
20
90.6439770000
40
1.0000000000
100
AcDbArc
50
270.0000000000
51
90.0000000000
0
ARC
5
24F
100
AcDbEntity
8
05
100
AcDbCircle
62
2
6
CONTINUOUS
10
155.8698790000
20
86.6439780000
40
1.0000000000
100
AcDbArc
50
270.0000000000
51
90.0000000000
0
ARC
5
250
100
AcDbEntity
8
05
100
AcDbCircle
62
2
6
CONTINUOUS
10
156.9942060000
20
94.6439770000
40
1.0000000000
100
AcDbArc
50
270.0000000000
51
90.0000000000
0
ARC
5
251
100
AcDbEntity
8
05
100
AcDbCircle
62
2
6
CONTINUOUS
10
157.5563690000
20
98.6439770000
40
1.0000000000
100
AcDbArc
50
270.0000000000
51
90.0000000000
0
ARC
5
252
100
AcDbEntity
8
05
100
AcDbCircle
62
2
6
CONTINUOUS
10
158.1185330000
20
102.6439770000
40
1.0000000000
100
AcDbArc
50
270.0000000000
51
90.0000000000
0
ARC
5
253
100
AcDbEntity
8
05
100
AcDbCircle
62
2
6
CONTINUOUS
10
158.1185330000
20
104.6439770000
40
1.0000000000
100
AcDbArc
50
90.0000000000
51
270.0000000000
0
ARC
5
254
100
AcDbEntity
8
05
100
AcDbCircle
62
2
6
CONTINUOUS
10
158.6806960000
20
106.6439770000
40
1.0000000000
100
AcDbArc
50
270.0000000000
51
352.0000000000
0
ARC
5
255
100
AcDbEntity
8
05
100
AcDbCircle
62
2
6
CONTINUOUS
10
155.8698790000
20
88.6439780000
40
1.0000000000
100
AcDbArc
50
90.0000000000
51
270.0000000000
0
ARC
5
256
100
AcDbEntity
8
05
100
AcDbCircle
62
2
6
CONTINUOUS
10
156.4320430000
20
92.6439770000
40
1.0000000000
100
AcDbArc
50
90.0000000000
51
270.0000000000
0
LINE
5
257
100
AcDbEntity
8
05
100
AcDbLine
62
2
6
CONTINUOUS
10
159.7030070000
20
111.6439770000
11
143.8932280000
21
111.6439770000
0
LINE
5
258
100
AcDbEntity
8
05
100
AcDbLine
62
2
6
CONTINUOUS
10
159.7030100000
20
111.6439770000
11
143.8932280000
21
111.6439770000
0
LINE
5
259
100
AcDbEntity
8
05
100
AcDbLine
62
2
6
CONTINUOUS
10
160.0758310000
20
111.6439770000
11
143.8932280000
21
111.6439770000
0
LINE
5
25A
100
AcDbEntity
8
05
100
AcDbLine
62
2
6
CONTINUOUS
10
159.7030100000
20
111.6439770000
11
160.8932280000
21
120.6439770000
0
ARC
5
25B
100
AcDbEntity
8
05
100
AcDbCircle
62
2
6
CONTINUOUS
10
159.7030070000
20
111.0439770000
40
0.6000000000
100
AcDbArc
50
352.0000000000
51
90.0000000000
0
LINE
5
25C
100
AcDbEntity
8
05
100
AcDbLine
62
2
6
CONTINUOUS
10
49.2935740000
20
111.6439770000
11
65.4761770000
21
111.6439770000
0
LINE
5
25D
100
AcDbEntity
8
05
100
AcDbLine
62
2
6
CONTINUOUS
10
49.6663950000
20
111.6439770000
11
65.4761770000
21
111.6439770000
0
LINE
5
25E
100
AcDbEntity
8
05
100
AcDbLine
62
2
6
CONTINUOUS
10
49.6663990000
20
111.6439770000
11
65.4761770000
21
111.6439770000
0
ARC
5
25F
100
AcDbEntity
8
05
100
AcDbCircle
62
2
6
CONTINUOUS
10
58.3560390000
20
74.6439780000
40
3.0000000000
100
AcDbArc
50
188.0000000000
51
270.0000000000
0
LINE
5
260
100
AcDbEntity
8
05
100
AcDbLine
62
2
6
CONTINUOUS
10
48.6124730000
20
118.7838110000
11
82.1637230000
21
118.7838110000
0
LINE
5
261
100
AcDbEntity
8
05
100
AcDbLine
62
2
6
CONTINUOUS
10
49.6984410000
20
106.5048040000
11
49.0722380000
21
110.9604730000
0
LINE
5
262
100
AcDbEntity
8
05
100
AcDbLine
62
2
6
CONTINUOUS
10
128.1154920000
20
106.5048040000
11
127.4892880000
21
110.9604730000
0
ARC
5
263
100
AcDbEntity
8
05
100
AcDbCircle
62
2
6
CONTINUOUS
10
132.4787400000
20
84.6439780000
40
1.0000000000
100
AcDbArc
50
270.0000000000
51
90.0000000000
0
ARC
5
264
100
AcDbEntity
8
05
100
AcDbCircle
62
2
6
CONTINUOUS
10
136.7730900000
20
74.6439780000
40
3.0000000000
100
AcDbArc
50
188.0000000000
51
270.0000000000
0
ARC
5
265
100
AcDbEntity
8
05
100
AcDbCircle
62
2
6
CONTINUOUS
10
133.0409030000
20
80.6439780000
40
1.0000000000
100
AcDbArc
50
270.0000000000
51
90.0000000000
0
LINE
5
266
100
AcDbEntity
8
05
100
AcDbLine
62
2
6
CONTINUOUS
10
133.0409030000
20
79.6439780000
11
133.8022860000
21
74.2264580000
0
ARC
5
267
100
AcDbEntity
8
05
100
AcDbCircle
62
2
6
CONTINUOUS
10
132.4787400000
20
82.6439780000
40
1.0000000000
100
AcDbArc
50
90.0000000000
51
270.0000000000
0
ARC
5
268
100
AcDbEntity
8
05
100
AcDbCircle
62
2
6
CONTINUOUS
10
130.7922500000
20
94.6439770000
40
1.0000000000
100
AcDbArc
50
90.0000000000
51
270.0000000000
0
ARC
5
269
100
AcDbEntity
8
05
100
AcDbCircle
62
2
6
CONTINUOUS
10
131.9165770000
20
88.6439780000
40
1.0000000000
100
AcDbArc
50
270.0000000000
51
90.0000000000
0
ARC
5
26A
100
AcDbEntity
8
05
100
AcDbCircle
62
2
6
CONTINUOUS
10
131.3544130000
20
90.6439770000
40
1.0000000000
100
AcDbArc
50
90.0000000000
51
270.0000000000
0
ARC
5
26B
100
AcDbEntity
8
05
100
AcDbCircle
62
2
6
CONTINUOUS
10
131.9165770000
20
86.6439780000
40
1.0000000000
100
AcDbArc
50
90.0000000000
51
270.0000000000
0
ARC
5
26C
100
AcDbEntity
8
05
100
AcDbCircle
62
2
6
CONTINUOUS
10
131.3544130000
20
92.6439770000
40
1.0000000000
100
AcDbArc
50
270.0000000000
51
90.0000000000
0
ARC
5
26D
100
AcDbEntity
8
05
100
AcDbCircle
62
2
6
CONTINUOUS
10
130.2300870000
20
100.6439770000
40
1.0000000000
100
AcDbArc
50
270.0000000000
51
90.0000000000
0
ARC
5
26E
100
AcDbEntity
8
05
100
AcDbCircle
62
2
6
CONTINUOUS
10
130.7922500000
20
96.6439770000
40
1.0000000000
100
AcDbArc
50
270.0000000000
51
90.0000000000
0
ARC
5
26F
100
AcDbEntity
8
05
100
AcDbCircle
62
2
6
CONTINUOUS
10
130.2300870000
20
98.6439770000
40
1.0000000000
100
AcDbArc
50
90.0000000000
51
270.0000000000
0
ARC
5
270
100
AcDbEntity
8
05
100
AcDbCircle
62
2
6
CONTINUOUS
10
129.1057600000
20
106.6439770000
40
1.0000000000
100
AcDbArc
50
188.0000000000
51
270.0000000000
0
ARC
5
271
100
AcDbEntity
8
05
100
AcDbCircle
62
2
6
CONTINUOUS
10
129.6679230000
20
104.6439770000
40
1.0000000000
100
AcDbArc
50
270.0000000000
51
90.0000000000
0
ARC
5
272
100
AcDbEntity
8
05
100
AcDbCircle
62
2
6
CONTINUOUS
10
129.6679230000
20
102.6439770000
40
1.0000000000
100
AcDbArc
50
90.0000000000
51
270.0000000000
0
ARC
5
273
100
AcDbEntity
8
05
100
AcDbCircle
62
2
6
CONTINUOUS
10
54.0616890000
20
84.6439780000
40
1.0000000000
100
AcDbArc
50
270.0000000000
51
90.0000000000
0
LINE
5
274
100
AcDbEntity
8
05
100
AcDbLine
62
2
6
CONTINUOUS
10
54.6238530000
20
79.6439780000
11
55.3852350000
21
74.2264580000
0
ARC
5
275
100
AcDbEntity
8
05
100
AcDbCircle
62
2
6
CONTINUOUS
10
54.0616890000
20
82.6439780000
40
1.0000000000
100
AcDbArc
50
90.0000000000
51
270.0000000000
0
ARC
5
276
100
AcDbEntity
8
05
100
AcDbCircle
62
2
6
CONTINUOUS
10
54.6238530000
20
80.6439780000
40
1.0000000000
100
AcDbArc
50
270.0000000000
51
90.0000000000
0
ARC
5
277
100
AcDbEntity
8
05
100
AcDbCircle
62
2
6
CONTINUOUS
10
52.3751990000
20
94.6439770000
40
1.0000000000
100
AcDbArc
50
90.0000000000
51
270.0000000000
0
ARC
5
278
100
AcDbEntity
8
05
100
AcDbCircle
62
2
6
CONTINUOUS
10
52.9373630000
20
90.6439770000
40
1.0000000000
100
AcDbArc
50
90.0000000000
51
270.0000000000
0
ARC
5
279
100
AcDbEntity
8
05
100
AcDbCircle
62
2
6
CONTINUOUS
10
53.4995260000
20
88.6439780000
40
1.0000000000
100
AcDbArc
50
270.0000000000
51
90.0000000000
0
ARC
5
27A
100
AcDbEntity
8
05
100
AcDbCircle
62
2
6
CONTINUOUS
10
53.4995260000
20
86.6439780000
40
1.0000000000
100
AcDbArc
50
90.0000000000
51
270.0000000000
0
ARC
5
27B
100
AcDbEntity
8
05
100
AcDbCircle
62
2
6
CONTINUOUS
10
52.9373630000
20
92.6439770000
40
1.0000000000
100
AcDbArc
50
270.0000000000
51
90.0000000000
0
ARC
5
27C
100
AcDbEntity
8
05
100
AcDbCircle
62
2
6
CONTINUOUS
10
50.6887090000
20
106.6439770000
40
1.0000000000
100
AcDbArc
50
188.0000000000
51
270.0000000000
0
ARC
5
27D
100
AcDbEntity
8
05
100
AcDbCircle
62
2
6
CONTINUOUS
10
51.8130360000
20
100.6439770000
40
1.0000000000
100
AcDbArc
50
270.0000000000
51
90.0000000000
0
ARC
5
27E
100
AcDbEntity
8
05
100
AcDbCircle
62
2
6
CONTINUOUS
10
52.3751990000
20
96.6439770000
40
1.0000000000
100
AcDbArc
50
270.0000000000
51
90.0000000000
0
ARC
5
27F
100
AcDbEntity
8
05
100
AcDbCircle
62
2
6
CONTINUOUS
10
51.8130360000
20
98.6439770000
40
1.0000000000
100
AcDbArc
50
90.0000000000
51
270.0000000000
0
ARC
5
280
100
AcDbEntity
8
05
100
AcDbCircle
62
2
6
CONTINUOUS
10
51.2508730000
20
104.6439770000
40
1.0000000000
100
AcDbArc
50
270.0000000000
51
90.0000000000
0
ARC
5
281
100
AcDbEntity
8
05
100
AcDbCircle
62
2
6
CONTINUOUS
10
51.2508730000
20
102.6439770000
40
1.0000000000
100
AcDbArc
50
90.0000000000
51
270.0000000000
0
LINE
5
282
100
AcDbEntity
8
05
100
AcDbLine
62
2
6
CONTINUOUS
10
128.0834450000
20
111.6439770000
11
126.8932280000
21
120.6439770000
0
ARC
5
283
100
AcDbEntity
8
05
100
AcDbCircle
62
2
6
CONTINUOUS
10
128.0834490000
20
111.0439770000
40
0.6000000000
100
AcDbArc
50
90.0000000000
51
188.0000000000
0
LINE
5
284
100
AcDbEntity
8
05
100
AcDbLine
62
2
6
CONTINUOUS
10
49.6663950000
20
111.6439770000
11
48.4761770000
21
120.6439770000
0
ARC
5
285
100
AcDbEntity
8
05
100
AcDbCircle
62
2
6
CONTINUOUS
10
49.6663990000
20
111.0439770000
40
0.6000000000
100
AcDbArc
50
90.0000000000
51
188.0000000000
0
LINE
5
286
100
AcDbEntity
8
05
100
AcDbLine
62
2
6
CONTINUOUS
10
81.2539140000
20
106.5048040000
11
81.8801170000
21
110.9604730000
0
ARC
5
287
100
AcDbEntity
8
05
100
AcDbCircle
62
2
6
CONTINUOUS
10
76.8906650000
20
84.6439780000
40
1.0000000000
100
AcDbArc
50
90.0000000000
51
270.0000000000
0
ARC
5
288
100
AcDbEntity
8
05
100
AcDbCircle
62
2
6
CONTINUOUS
10
72.5963150000
20
74.6439780000
40
3.0000000000
100
AcDbArc
50
270.0000000000
51
352.0000000000
0
LINE
5
289
100
AcDbEntity
8
05
100
AcDbLine
62
2
6
CONTINUOUS
10
72.5963150000
20
71.6439780000
11
65.4761770000
21
71.6439780000
0
LINE
5
28A
100
AcDbEntity
8
05
100
AcDbLine
62
2
6
CONTINUOUS
10
58.3560390000
20
71.6439780000
11
65.4761770000
21
71.6439780000
0
LINE
5
28B
100
AcDbEntity
8
05
100
AcDbLine
62
2
6
CONTINUOUS
10
76.3285020000
20
79.6439780000
11
75.5671190000
21
74.2264580000
0
ARC
5
28C
100
AcDbEntity
8
05
100
AcDbCircle
62
2
6
CONTINUOUS
10
76.8906650000
20
82.6439780000
40
1.0000000000
100
AcDbArc
50
270.0000000000
51
90.0000000000
0
ARC
5
28D
100
AcDbEntity
8
05
100
AcDbCircle
62
2
6
CONTINUOUS
10
76.3285020000
20
80.6439780000
40
1.0000000000
100
AcDbArc
50
90.0000000000
51
270.0000000000
0
ARC
5
28E
100
AcDbEntity
8
05
100
AcDbCircle
62
2
6
CONTINUOUS
10
78.5771550000
20
94.6439770000
40
1.0000000000
100
AcDbArc
50
270.0000000000
51
90.0000000000
0
ARC
5
28F
100
AcDbEntity
8
05
100
AcDbCircle
62
2
6
CONTINUOUS
10
78.0149920000
20
90.6439770000
40
1.0000000000
100
AcDbArc
50
270.0000000000
51
90.0000000000
0
ARC
5
290
100
AcDbEntity
8
05
100
AcDbCircle
62
2
6
CONTINUOUS
10
77.4528290000
20
88.6439780000
40
1.0000000000
100
AcDbArc
50
90.0000000000
51
270.0000000000
0
ARC
5
291
100
AcDbEntity
8
05
100
AcDbCircle
62
2
6
CONTINUOUS
10
77.4528290000
20
86.6439780000
40
1.0000000000
100
AcDbArc
50
270.0000000000
51
90.0000000000
0
ARC
5
292
100
AcDbEntity
8
05
100
AcDbCircle
62
2
6
CONTINUOUS
10
78.0149920000
20
92.6439770000
40
1.0000000000
100
AcDbArc
50
90.0000000000
51
270.0000000000
0
ARC
5
293
100
AcDbEntity
8
05
100
AcDbCircle
62
2
6
CONTINUOUS
10
79.1393190000
20
100.6439770000
40
1.0000000000
100
AcDbArc
50
90.0000000000
51
270.0000000000
0
ARC
5
294
100
AcDbEntity
8
05
100
AcDbCircle
62
2
6
CONTINUOUS
10
78.5771550000
20
96.6439770000
40
1.0000000000
100
AcDbArc
50
90.0000000000
51
270.0000000000
0
ARC
5
295
100
AcDbEntity
8
05
100
AcDbCircle
62
2
6
CONTINUOUS
10
79.1393190000
20
98.6439770000
40
1.0000000000
100
AcDbArc
50
270.0000000000
51
90.0000000000
0
ARC
5
296
100
AcDbEntity
8
05
100
AcDbCircle
62
2
6
CONTINUOUS
10
79.7014820000
20
102.6439770000
40
1.0000000000
100
AcDbArc
50
270.0000000000
51
90.0000000000
0
ARC
5
297
100
AcDbEntity
8
05
100
AcDbCircle
62
2
6
CONTINUOUS
10
79.7014820000
20
104.6439770000
40
1.0000000000
100
AcDbArc
50
90.0000000000
51
270.0000000000
0
ARC
5
298
100
AcDbEntity
8
05
100
AcDbCircle
62
2
6
CONTINUOUS
10
80.2636450000
20
106.6439770000
40
1.0000000000
100
AcDbArc
50
270.0000000000
51
352.0000000000
0
LINE
5
299
100
AcDbEntity
8
05
100
AcDbLine
62
2
6
CONTINUOUS
10
81.2859600000
20
111.6439770000
11
65.4761770000
21
111.6439770000
0
LINE
5
29A
100
AcDbEntity
8
05
100
AcDbLine
62
2
6
CONTINUOUS
10
81.2859560000
20
111.6439770000
11
65.4761770000
21
111.6439770000
0
LINE
5
29B
100
AcDbEntity
8
05
100
AcDbLine
62
2
6
CONTINUOUS
10
81.2859600000
20
111.6439770000
11
82.4761770000
21
120.6439770000
0
ARC
5
29C
100
AcDbEntity
8
05
100
AcDbCircle
62
2
6
CONTINUOUS
10
81.2859560000
20
111.0439770000
40
0.6000000000
100
AcDbArc
50
352.0000000000
51
90.0000000000
0
LINE
5
29D
100
AcDbEntity
8
05
100
AcDbLine
62
2
6
CONTINUOUS
10
122.2932280000
20
175.6439780000
11
165.4932280000
21
175.6439780000
0
LINE
5
29E
100
AcDbEntity
8
05
100
AcDbLine
62
2
6
CONTINUOUS
10
122.2932280000
20
190.6439780000
11
164.9597950000
21
190.6439780000
0
LINE
5
29F
100
AcDbEntity
8
05
100
AcDbLine
62
2
6
CONTINUOUS
10
160.4516280000
20
227.4963920000
11
127.1983680000
21
227.4963920000
0
LINE
5
2A0
100
AcDbEntity
8
05
100
AcDbLine
62
2
6
CONTINUOUS
10
157.6432280000
20
251.6439780000
11
130.1432280000
21
251.6439780000
0
LINE
5
2A1
100
AcDbEntity
8
05
100
AcDbLine
62
2
6
CONTINUOUS
10
160.4516310000
20
223.7791640000
11
127.1983650000
21
223.7791640000
0
LINE
5
2A2
100
AcDbEntity
8
05
100
AcDbLine
62
2
6
CONTINUOUS
10
161.8932280000
20
223.4439780000
11
125.8932280000
21
223.4439780000
0
LINE
5
2A3
100
AcDbEntity
8
05
100
AcDbLine
62
2
6
CONTINUOUS
10
159.6432280000
20
227.4963920000
11
159.6432280000
21
249.6439780000
0
LINE
5
2A4
100
AcDbEntity
8
05
100
AcDbLine
62
2
6
CONTINUOUS
10
157.3732520000
20
227.4963920000
11
157.3537000000
21
250.1355580000
0
LINE
5
2A5
100
AcDbEntity
8
05
100
AcDbLine
62
2
6
CONTINUOUS
10
155.5417520000
20
227.4963920000
11
155.5417520000
21
251.3705950000
0
LINE
5
2A6
100
AcDbEntity
8
05
100
AcDbLine
62
2
6
CONTINUOUS
10
162.8932280000
20
204.7721110000
11
162.8932280000
21
190.6439780000
0
LINE
5
2A7
100
AcDbEntity
8
05
100
AcDbLine
62
2
6
CONTINUOUS
10
148.1303340000
20
190.6439780000
11
148.1303340000
21
200.6439780000
0
LINE
5
2A8
100
AcDbEntity
8
05
100
AcDbLine
62
2
6
CONTINUOUS
10
162.8932280000
20
195.6439780000
11
148.1303340000
21
195.6439780000
0
LINE
5
2A9
100
AcDbEntity
8
05
100
AcDbLine
62
2
6
CONTINUOUS
10
163.7281170000
20
190.6439780000
11
148.9652230000
21
190.6439780000
0
LINE
5
2AA
100
AcDbEntity
8
05
100
AcDbLine
62
2
6
CONTINUOUS
10
165.5597950000
20
178.8726270000
11
165.5597950000
21
190.0439780000
0
LINE
5
2AB
100
AcDbEntity
8
05
100
AcDbLine
62
2
6
CONTINUOUS
10
166.4932280000
20
193.7941710000
11
166.4932280000
21
179.1439780000
0
ARC
5
2AC
100
AcDbEntity
8
05
100
AcDbCircle
62
2
6
CONTINUOUS
10
165.4932280000
20
176.0439780000
40
0.4000000000
100
AcDbArc
50
270.0000000000
51
360.0000000000
0
ARC
5
2AD
100
AcDbEntity
8
05
100
AcDbCircle
62
2
6
CONTINUOUS
10
165.9530860000
20
179.2608830000
40
0.5526490000
100
AcDbArc
50
224.6308940000
51
347.7876090000
0
LINE
5
2AE
100
AcDbEntity
8
05
100
AcDbLine
62
2
6
CONTINUOUS
10
165.8932280000
20
178.7114850000
11
165.8932280000
21
176.0439780000
0
LINE
5
2AF
100
AcDbEntity
8
05
100
AcDbLine
62
2
6
CONTINUOUS
10
164.5879500000
20
194.7941710000
11
165.4932280000
21
194.7941710000
0
ARC
5
2B0
100
AcDbEntity
8
05
100
AcDbCircle
62
2
6
CONTINUOUS
10
164.9597950000
20
190.0439780000
40
0.6000000000
100
AcDbArc
50
0.0000000000
51
90.0000000000
0
ARC
5
2B1
100
AcDbEntity
8
05
100
AcDbCircle
62
2
6
CONTINUOUS
10
165.4932280000
20
193.7941710000
40
1.0000000000
100
AcDbArc
50
0.0000000000
51
90.0000000000
0
LINE
5
2B2
100
AcDbEntity
8
05
100
AcDbLine
62
2
6
CONTINUOUS
10
164.3879500000
20
194.5941710000
11
164.3879500000
21
190.6439780000
0
ARC
5
2B3
100
AcDbEntity
8
05
100
AcDbCircle
62
2
6
CONTINUOUS
10
164.5879500000
20
194.5941710000
40
0.2000000000
100
AcDbArc
50
90.0000000000
51
180.0000000000
0
LINE
5
2B4
100
AcDbEntity
8
05
100
AcDbLine
62
2
6
CONTINUOUS
10
162.4073760000
20
223.3016790000
11
162.4073760000
21
205.2066440000
0
LINE
5
2B5
100
AcDbEntity
8
05
100
AcDbLine
62
2
6
CONTINUOUS
10
162.8932280000
20
200.6439780000
11
148.1303340000
21
200.6439780000
0
LINE
5
2B6
100
AcDbEntity
8
05
100
AcDbLine
62
2
6
CONTINUOUS
10
162.8932280000
20
200.6439780000
11
162.8932280000
21
203.5873630000
0
LINE
5
2B7
100
AcDbEntity
8
05
100
AcDbLine
62
2
6
CONTINUOUS
10
162.4073760000
20
205.2066440000
11
162.8932280000
21
204.7721110000
0
ARC
5
2B8
100
AcDbEntity
8
05
100
AcDbCircle
62
2
6
CONTINUOUS
10
160.4516310000
20
225.6377780000
40
1.8586140000
100
AcDbArc
50
269.9999120000
51
90.0000880000
0
ARC
5
2B9
100
AcDbEntity
8
05
100
AcDbCircle
62
2
6
CONTINUOUS
10
155.8406960000
20
249.8624910000
40
1.5374480000
100
AcDbArc
50
10.2306280000
51
101.2121120000
0
ARC
5
2BA
100
AcDbEntity
8
05
100
AcDbCircle
62
2
6
CONTINUOUS
10
157.6432280000
20
249.6439780000
40
2.0000000000
100
AcDbArc
50
0.0000000000
51
90.0000000000
0
ARC
5
2BB
100
AcDbEntity
8
035
100
AcDbCircle
62
2
6
CONTINUOUS
10
67.6761770000
20
240.6439780000
40
1.0000000000
100
AcDbArc
50
0.0000000000
51
90.0000000000
0
ARC
5
2BC
100
AcDbEntity
8
035
100
AcDbCircle
62
2
6
CONTINUOUS
10
63.2761770000
20
240.6439780000
40
1.0000000000
100
AcDbArc
50
90.0000000000
51
180.0000000000
0
LINE
5
2BD
100
AcDbEntity
8
05
100
AcDbLine
62
2
6
CONTINUOUS
10
77.0984420000
20
227.4963920000
11
77.0984420000
21
251.1494420000
0
LINE
5
2BE
100
AcDbEntity
8
05
100
AcDbLine
62
2
6
CONTINUOUS
10
75.2669410000
20
227.4963920000
11
75.2626240000
21
249.6833520000
0
LINE
5
2BF
100
AcDbEntity
8
05
100
AcDbLine
62
2
6
CONTINUOUS
10
81.2261770000
20
227.4963920000
11
81.2261770000
21
249.6439780000
0
LINE
5
2C0
100
AcDbEntity
8
05
100
AcDbLine
62
2
6
CONTINUOUS
10
49.7261770000
20
227.4963920000
11
49.7261770000
21
249.6439780000
0
LINE
5
2C1
100
AcDbEntity
8
05
100
AcDbLine
62
2
6
CONTINUOUS
10
128.1432280000
20
227.4963920000
11
128.1432280000
21
249.6439780000
0
ARC
5
2C2
100
AcDbEntity
8
035
100
AcDbCircle
62
2
6
CONTINUOUS
10
56.8124741057
20
205.0701659095
40
0.6833160065
100
AcDbArc
50
85.3969981035
51
119.3609046139
0
ARC
5
2C3
100
AcDbEntity
8
035
100
AcDbCircle
62
2
6
CONTINUOUS
10
57.1149749753
20
204.5324531575
40
1.3002777393
100
AcDbArc
50
119.3608476257
51
143.8081663256
0
ARC
5
2C4
100
AcDbEntity
8
035
100
AcDbCircle
62
2
6
CONTINUOUS
10
57.6354620373
20
204.1516336493
40
1.9452043085
100
AcDbArc
50
143.8082976524
51
161.1068867841
0
ARC
5
2C5
100
AcDbEntity
8
035
100
AcDbCircle
62
2
6
CONTINUOUS
10
58.4854051318
20
203.8607405550
40
2.8435483718
100
AcDbArc
50
161.1067597829
51
175.3970299916
0
ARC
5
2C6
100
AcDbEntity
8
035
100
AcDbCircle
62
2
6
CONTINUOUS
10
58.4854054229
20
203.8607384514
40
2.8435488308
100
AcDbArc
50
175.3969882126
51
189.6872584213
0
ARC
5
2C7
100
AcDbEntity
8
035
100
AcDbCircle
62
2
6
CONTINUOUS
10
57.5998725223
20
203.7095713226
40
1.9452059013
100
AcDbArc
50
189.6871744748
51
206.9857636066
0
ARC
5
2C8
100
AcDbEntity
8
035
100
AcDbCircle
62
2
6
CONTINUOUS
10
57.0251623243
20
203.4169240247
40
1.3002762519
100
AcDbArc
50
206.9858548800
51
231.4331735799
0
ARC
5
2C9
100
AcDbEntity
8
035
100
AcDbCircle
62
2
6
CONTINUOUS
10
56.6405328111
20
202.9345346207
40
0.6833164481
100
AcDbArc
50
231.4331856938
51
265.3970922043
0
ARC
5
2CA
100
AcDbEntity
8
035
100
AcDbCircle
62
2
6
CONTINUOUS
10
56.6405338943
20
202.9345340905
40
0.6833160065
100
AcDbArc
50
265.3969981035
51
299.3609046139
0
ARC
5
2CB
100
AcDbEntity
8
035
100
AcDbCircle
62
2
6
CONTINUOUS
10
56.3380330247
20
203.4722468425
40
1.3002777393
100
AcDbArc
50
299.3608476257
51
323.8081663256
0
ARC
5
2CC
100
AcDbEntity
8
035
100
AcDbCircle
62
2
6
CONTINUOUS
10
55.8175459627
20
203.8530663507
40
1.9452043085
100
AcDbArc
50
323.8082976524
51
341.1068867841
0
ARC
5
2CD
100
AcDbEntity
8
035
100
AcDbCircle
62
2
6
CONTINUOUS
10
54.9676028682
20
204.1439594450
40
2.8435483718
100
AcDbArc
50
341.1067597829
51
355.3970299916
0
ARC
5
2CE
100
AcDbEntity
8
035
100
AcDbCircle
62
2
6
CONTINUOUS
10
54.9676025771
20
204.1439615486
40
2.8435488308
100
AcDbArc
50
355.3969882126
51
9.6872584213
0
ARC
5
2CF
100
AcDbEntity
8
035
100
AcDbCircle
62
2
6
CONTINUOUS
10
55.8531349777
20
204.2951253904
40
1.9452069473
100
AcDbArc
50
9.6872674333
51
26.9858565651
0
ARC
5
2D0
100
AcDbEntity
8
035
100
AcDbCircle
62
2
6
CONTINUOUS
10
56.4278446757
20
204.5877759753
40
1.3002762519
100
AcDbArc
50
26.9858548800
51
51.4331735799
0
ARC
5
2D1
100
AcDbEntity
8
035
100
AcDbCircle
62
2
6
CONTINUOUS
10
56.8124746889
20
205.0701670165
40
0.6833148563
100
AcDbArc
50
51.4331328871
51
85.3970393976
0
LINE
5
2D2
100
AcDbEntity
8
05
100
AcDbLine
62
2
6
CONTINUOUS
10
47.4761780000
20
223.4439780000
11
83.4761770000
21
223.4439780000
0
LINE
5
2D3
100
AcDbEntity
8
05
100
AcDbLine
62
2
6
CONTINUOUS
10
45.3602160000
20
190.6439780000
11
60.4041830000
21
190.6439780000
0
LINE
5
2D4
100
AcDbEntity
8
05
100
AcDbLine
62
2
6
CONTINUOUS
10
46.4761780000
20
195.6439780000
11
65.4761770000
21
195.6439780000
0
LINE
5
2D5
100
AcDbEntity
8
05
100
AcDbLine
62
2
6
CONTINUOUS
10
46.4761780000
20
200.6439780000
11
65.4761770000
21
200.6439780000
0
LINE
5
2D6
100
AcDbEntity
8
05
100
AcDbLine
62
2
6
CONTINUOUS
10
87.0761770000
20
190.6439780000
11
44.1285380000
21
190.6439780000
0
LINE
5
2D7
100
AcDbEntity
8
05
100
AcDbLine
62
2
6
CONTINUOUS
10
87.0761770000
20
175.6439780000
11
43.8761770000
21
175.6439780000
0
LINE
5
2D8
100
AcDbEntity
8
05
100
AcDbLine
62
2
6
CONTINUOUS
10
46.4761780000
20
222.4439790000
11
46.4761780000
21
190.6439780000
0
LINE
5
2D9
100
AcDbEntity
8
05
100
AcDbLine
62
2
6
CONTINUOUS
10
124.8932280000
20
222.4439780000
11
124.8932280000
21
190.6439780000
0
LINE
5
2DA
100
AcDbEntity
8
05
100
AcDbLine
62
2
6
CONTINUOUS
10
139.6561220000
20
190.6439780000
11
139.6561220000
21
200.6439780000
0
LINE
5
2DB
100
AcDbEntity
8
05
100
AcDbLine
62
2
6
CONTINUOUS
10
139.6561220000
20
195.6439780000
11
124.8932280000
21
195.6439780000
0
LINE
5
2DC
100
AcDbEntity
8
05
100
AcDbLine
62
2
6
CONTINUOUS
10
139.6561220000
20
190.6439780000
11
124.8932280000
21
190.6439780000
0
ARC
5
2DD
100
AcDbEntity
8
05
100
AcDbCircle
62
2
6
CONTINUOUS
10
122.2932280000
20
176.0439780000
40
0.4000000000
100
AcDbArc
50
180.0000000000
51
270.0000000000
0
LINE
5
2DE
100
AcDbEntity
8
05
100
AcDbLine
62
2
6
CONTINUOUS
10
121.8932280000
20
178.6439780000
11
121.8932280000
21
176.0439780000
0
ARC
5
2DF
100
AcDbEntity
8
05
100
AcDbCircle
62
2
6
CONTINUOUS
10
122.2932280000
20
190.2439780000
40
0.4000000000
100
AcDbArc
50
90.0000000000
51
180.0000000000
0
LINE
5
2E0
100
AcDbEntity
8
05
100
AcDbLine
62
2
6
CONTINUOUS
10
121.8932280000
20
190.2439780000
11
121.8932280000
21
187.6439780000
0
LINE
5
2E1
100
AcDbEntity
8
05
100
AcDbLine
62
2
6
CONTINUOUS
10
43.4761770000
20
178.7114850000
11
43.4761770000
21
176.0439780000
0
ARC
5
2E2
100
AcDbEntity
8
05
100
AcDbCircle
62
2
6
CONTINUOUS
10
43.8761770000
20
176.0439780000
40
0.4000000000
100
AcDbArc
50
180.0000000000
51
270.0000000000
0
LINE
5
2E3
100
AcDbEntity
8
05
100
AcDbLine
62
2
6
CONTINUOUS
10
43.5285380000
20
190.0439780000
11
43.5285380000
21
187.5787360000
0
ARC
5
2E4
100
AcDbEntity
8
05
100
AcDbCircle
62
2
6
CONTINUOUS
10
44.1285380000
20
190.0439780000
40
0.6000000000
100
AcDbArc
50
90.0000000000
51
180.0000000000
0
LINE
5
2E5
100
AcDbEntity
8
05
100
AcDbLine
62
2
6
CONTINUOUS
10
139.6561220000
20
200.6439780000
11
124.8932280000
21
200.6439780000
0
LINE
5
2E6
100
AcDbEntity
8
05
100
AcDbLine
62
2
6
CONTINUOUS
10
124.8932280000
20
200.6439780000
11
124.8932280000
21
203.5873630000
0
ARC
5
2E7
100
AcDbEntity
8
05
100
AcDbCircle
62
2
6
CONTINUOUS
10
127.1983650000
20
225.6377780000
40
1.8586140000
100
AcDbArc
50
89.9998890000
51
270.0001110000
0
ARC
5
2E8
100
AcDbEntity
8
05
100
AcDbCircle
62
2
6
CONTINUOUS
10
125.8932280000
20
222.4439780000
40
1.0000000000
100
AcDbArc
50
90.0000000000
51
180.0000000000
0
LINE
5
2E9
100
AcDbEntity
8
05
100
AcDbLine
62
2
6
CONTINUOUS
10
46.4761780000
20
200.6439780000
11
46.4761780000
21
203.5873630000
0
ARC
5
2EA
100
AcDbEntity
8
05
100
AcDbCircle
62
2
6
CONTINUOUS
10
47.4761780000
20
222.4439780000
40
1.0000000000
100
AcDbArc
50
90.0000000000
51
180.0000840000
0
LINE
5
2EB
100
AcDbEntity
8
05
100
AcDbLine
62
2
6
CONTINUOUS
10
84.4761770000
20
222.4439780000
11
84.4761770000
21
190.6439780000
0
LINE
5
2EC
100
AcDbEntity
8
05
100
AcDbLine
62
2
6
CONTINUOUS
10
69.7132830000
20
190.6439780000
11
84.4761770000
21
190.6439780000
0
LINE
5
2ED
100
AcDbEntity
8
05
100
AcDbLine
62
2
6
CONTINUOUS
10
65.4761770000
20
195.6439780000
11
84.4761770000
21
195.6439780000
0
LINE
5
2EE
100
AcDbEntity
8
05
100
AcDbLine
62
2
6
CONTINUOUS
10
64.7261770000
20
193.9920110000
11
64.7261770000
21
179.3939780000
0
LINE
5
2EF
100
AcDbEntity
8
05
100
AcDbLine
62
2
6
CONTINUOUS
10
66.2261770000
20
193.9920110000
11
66.2261770000
21
179.3939780000
0
ARC
5
2F0
100
AcDbEntity
8
05
100
AcDbCircle
62
2
6
CONTINUOUS
10
65.4761770000
20
179.3939780000
40
0.7500000000
100
AcDbArc
50
179.9998540000
51
0.0001030000
0
ARC
5
2F1
100
AcDbEntity
8
05
100
AcDbCircle
62
2
6
CONTINUOUS
10
65.4761770000
20
193.9920110000
40
0.7500000000
100
AcDbArc
50
359.9998540000
51
180.0001030000
0
LINE
5
2F2
100
AcDbEntity
8
05
100
AcDbLine
62
2
6
CONTINUOUS
10
87.4761770000
20
178.6439780000
11
87.4761770000
21
176.0439780000
0
ARC
5
2F3
100
AcDbEntity
8
05
100
AcDbCircle
62
2
6
CONTINUOUS
10
87.0761770000
20
176.0439780000
40
0.4000000000
100
AcDbArc
50
270.0000000000
51
360.0000000000
0
LINE
5
2F4
100
AcDbEntity
8
05
100
AcDbLine
62
2
6
CONTINUOUS
10
87.4761770000
20
190.2439780000
11
87.4761770000
21
187.6439780000
0
ARC
5
2F5
100
AcDbEntity
8
05
100
AcDbCircle
62
2
6
CONTINUOUS
10
87.0761770000
20
190.2439780000
40
0.4000000000
100
AcDbArc
50
0.0000000000
51
90.0000000000
0
LINE
5
2F6
100
AcDbEntity
8
05
100
AcDbLine
62
2
6
CONTINUOUS
10
68.6761770000
20
223.4439780000
11
68.6761770000
21
206.2543510000
0
LINE
5
2F7
100
AcDbEntity
8
05
100
AcDbLine
62
2
6
CONTINUOUS
10
62.2761770000
20
223.4439780000
11
62.2761770000
21
206.2543510000
0
LINE
5
2F8
100
AcDbEntity
8
035
100
AcDbLine
62
2
6
CONTINUOUS
10
72.9771500000
20
203.9680240000
11
73.9667630000
21
203.9713750000
0
LINE
5
2F9
100
AcDbEntity
8
035
100
AcDbLine
62
2
6
CONTINUOUS
10
73.1469590000
20
205.7313900000
11
75.0347650000
21
205.7313900000
0
LINE
5
2FA
100
AcDbEntity
8
05
100
AcDbLine
62
2
6
CONTINUOUS
10
65.4761770000
20
200.6439780000
11
84.4761770000
21
200.6439780000
0
ARC
5
2FB
100
AcDbEntity
8
05
100
AcDbCircle
62
2
6
CONTINUOUS
10
65.4761770000
20
213.6371180000
40
7.0464430000
100
AcDbArc
50
246.5660740000
51
293.4339260000
0
ARC
5
2FC
100
AcDbEntity
8
05
100
AcDbCircle
62
2
6
CONTINUOUS
10
65.4761770000
20
213.6371180000
40
8.0464430000
100
AcDbArc
50
246.5660740000
51
293.4339260000
0
LINE
5
2FD
100
AcDbEntity
8
035
100
AcDbLine
62
2
6
CONTINUOUS
10
60.5886340000
20
202.2735240000
11
60.8702480000
21
205.6306630000
0
LINE
5
2FE
100
AcDbEntity
8
035
100
AcDbLine
62
2
6
CONTINUOUS
10
58.9190670000
20
205.7311760000
11
60.5886340000
21
202.2735240000
0
LINE
5
2FF
100
AcDbEntity
8
035
100
AcDbLine
62
2
6
CONTINUOUS
10
58.6173380000
20
202.2735240000
11
58.9190670000
21
205.7311760000
0
LINE
5
300
100
AcDbEntity
8
035
100
AcDbLine
62
2
6
CONTINUOUS
10
72.8113490000
20
202.2462610000
11
73.1469590000
21
205.7313900000
0
ARC
5
301
100
AcDbEntity
8
035
100
AcDbCircle
62
2
6
CONTINUOUS
10
71.0339471057
20
205.0701659095
40
0.6833160065
100
AcDbArc
50
85.3969981035
51
119.3609046139
0
ARC
5
302
100
AcDbEntity
8
035
100
AcDbCircle
62
2
6
CONTINUOUS
10
71.3364479753
20
204.5324531575
40
1.3002777393
100
AcDbArc
50
119.3608476257
51
143.8081663256
0
ARC
5
303
100
AcDbEntity
8
035
100
AcDbCircle
62
2
6
CONTINUOUS
10
71.8569345373
20
204.1516303623
40
1.9452058459
100
AcDbArc
50
143.8082108201
51
161.1067999519
0
ARC
5
304
100
AcDbEntity
8
035
100
AcDbCircle
62
2
6
CONTINUOUS
10
72.7068776318
20
203.8607445436
40
2.8435475533
100
AcDbArc
50
161.1068390835
51
175.3971092922
0
ARC
5
305
100
AcDbEntity
8
035
100
AcDbCircle
62
2
6
CONTINUOUS
10
72.7068784229
20
203.8607384514
40
2.8435488308
100
AcDbArc
50
175.3969882126
51
189.6872584213
0
ARC
5
306
100
AcDbEntity
8
035
100
AcDbCircle
62
2
6
CONTINUOUS
10
71.8213455223
20
203.7095713226
40
1.9452059013
100
AcDbArc
50
189.6871744748
51
206.9857636066
0
ARC
5
307
100
AcDbEntity
8
035
100
AcDbCircle
62
2
6
CONTINUOUS
10
71.2466353243
20
203.4169240247
40
1.3002762519
100
AcDbArc
50
206.9858548800
51
231.4331735799
0
ARC
5
308
100
AcDbEntity
8
035
100
AcDbCircle
62
2
6
CONTINUOUS
10
70.8620058111
20
202.9345346207
40
0.6833164481
100
AcDbArc
50
231.4331856938
51
265.3970922043
0
ARC
5
309
100
AcDbEntity
8
035
100
AcDbCircle
62
2
6
CONTINUOUS
10
70.8620068943
20
202.9345340905
40
0.6833160065
100
AcDbArc
50
265.3969981035
51
299.3609046139
0
ARC
5
30A
100
AcDbEntity
8
035
100
AcDbCircle
62
2
6
CONTINUOUS
10
70.5595055247
20
203.4722445345
40
1.3002759729
100
AcDbArc
50
299.3609166919
51
323.8082353918
0
ARC
5
30B
100
AcDbEntity
8
035
100
AcDbCircle
62
2
6
CONTINUOUS
10
70.0390184627
20
203.8530696377
40
1.9452058459
100
AcDbArc
50
323.8082108201
51
341.1067999519
0
ARC
5
30C
100
AcDbEntity
8
035
100
AcDbCircle
62
2
6
CONTINUOUS
10
69.1890753682
20
204.1439554564
40
2.8435475533
100
AcDbArc
50
341.1068390835
51
355.3971092922
0
ARC
5
30D
100
AcDbEntity
8
035
100
AcDbCircle
62
2
6
CONTINUOUS
10
69.1890750771
20
204.1439655372
40
2.8435486525
100
AcDbArc
50
355.3969072950
51
9.6871775037
0
ARC
5
30E
100
AcDbEntity
8
035
100
AcDbCircle
62
2
6
CONTINUOUS
10
70.0746079777
20
204.2951253904
40
1.9452069473
100
AcDbArc
50
9.6872674333
51
26.9858565651
0
ARC
5
30F
100
AcDbEntity
8
035
100
AcDbCircle
62
2
6
CONTINUOUS
10
70.6493176757
20
204.5877759753
40
1.3002762519
100
AcDbArc
50
26.9858548800
51
51.4331735799
0
ARC
5
310
100
AcDbEntity
8
035
100
AcDbCircle
62
2
6
CONTINUOUS
10
71.0339476889
20
205.0701670165
40
0.6833148563
100
AcDbArc
50
51.4331328871
51
85.3970393976
0
LINE
5
311
100
AcDbEntity
8
035
100
AcDbLine
62
2
6
CONTINUOUS
10
75.8378260000
20
205.7313900000
11
77.7256330000
21
205.7313900000
0
LINE
5
312
100
AcDbEntity
8
035
100
AcDbLine
62
2
6
CONTINUOUS
10
75.6680180000
20
203.9680240000
11
76.6576310000
21
203.9713750000
0
LINE
5
313
100
AcDbEntity
8
035
100
AcDbLine
62
2
6
CONTINUOUS
10
75.5022170000
20
202.2462610000
11
75.8378260000
21
205.7313900000
0
LINE
5
314
100
AcDbEntity
8
05
100
AcDbLine
62
2
6
CONTINUOUS
10
84.4761770000
20
200.6439780000
11
84.4761770000
21
203.5873630000
0
LINE
5
315
100
AcDbEntity
8
035
100
AcDbLine
62
2
6
CONTINUOUS
10
68.6761770000
20
240.6439780000
11
68.6761770000
21
227.4439780000
0
LINE
5
316
100
AcDbEntity
8
035
100
AcDbLine
62
2
6
CONTINUOUS
10
62.2761770000
20
227.4439780000
11
62.2761770000
21
240.6439780000
0
ARC
5
317
100
AcDbEntity
8
05
100
AcDbCircle
62
2
6
CONTINUOUS
10
83.4761770000
20
222.4439780000
40
1.0000000000
100
AcDbArc
50
0.0000000000
51
90.0000000000
0
LINE
5
318
100
AcDbEntity
8
05
100
AcDbLine
62
2
6
CONTINUOUS
10
51.7261770000
20
251.6439780000
11
79.2261770000
21
251.6439780000
0
ARC
5
319
100
AcDbEntity
8
05
100
AcDbCircle
62
2
6
CONTINUOUS
10
130.1432280000
20
249.6439780000
40
2.0000000000
100
AcDbArc
50
90.0000000000
51
180.0000000000
0
ARC
5
31A
100
AcDbEntity
8
05
100
AcDbCircle
62
2
6
CONTINUOUS
10
51.7261770000
20
249.6439780000
40
2.0000000000
100
AcDbArc
50
90.0000000000
51
180.0000000000
0
LINE
5
31B
100
AcDbEntity
8
035
100
AcDbLine
62
2
6
CONTINUOUS
10
63.2761770000
20
241.6439780000
11
67.6761770000
21
241.6439780000
0
ARC
5
31C
100
AcDbEntity
8
05
100
AcDbCircle
62
2
6
CONTINUOUS
10
79.2261770000
20
249.6439780000
40
2.0000000000
100
AcDbArc
50
0.0000000000
51
90.0000000000
0
ARC
5
31D
100
AcDbEntity
8
05
100
AcDbCircle
62
2
6
CONTINUOUS
10
76.7994980000
20
249.6413370000
40
1.5374480000
100
AcDbArc
50
78.7878880000
51
181.5880210000
0
LINE
5
31E
100
AcDbEntity
8
05
100
AcDbLine
62
2
6
CONTINUOUS
10
46.6761770000
20
223.4439780000
11
84.2761770000
21
223.4439780000
0
LINE
5
31F
100
AcDbEntity
8
05
100
AcDbLine
62
2
6
CONTINUOUS
10
84.2761770000
20
223.4439780000
11
84.2761770000
21
224.4439830000
0
ARC
5
320
100
AcDbEntity
8
05
100
AcDbCircle
62
2
6
CONTINUOUS
10
83.2761770000
20
224.4439780000
40
1.0000000000
100
AcDbArc
50
0.0000000000
51
90.0000000000
0
ARC
5
321
100
AcDbEntity
8
05
100
AcDbCircle
62
2
6
CONTINUOUS
10
80.9761970000
20
226.4439980000
40
0.9999800000
100
AcDbArc
50
0.0000000000
51
90.0000000000
0
LINE
5
322
100
AcDbEntity
8
05
100
AcDbLine
62
2
6
CONTINUOUS
10
81.9761770000
20
226.4439780000
11
81.9761770000
21
226.4439980000
0
ARC
5
323
100
AcDbEntity
8
05
100
AcDbCircle
62
2
6
CONTINUOUS
10
82.9761770000
20
226.4439780000
40
1.0000000000
100
AcDbArc
50
180.0000000000
51
270.0000000000
0
LINE
5
324
100
AcDbEntity
8
05
100
AcDbLine
62
2
6
CONTINUOUS
10
46.6761770000
20
223.4439780000
11
46.6761770000
21
224.4439830000
0
ARC
5
325
100
AcDbEntity
8
05
100
AcDbCircle
62
2
6
CONTINUOUS
10
47.6761770000
20
224.4439780000
40
1.0000000000
100
AcDbArc
50
90.0000000000
51
180.0000000000
0
ARC
5
326
100
AcDbEntity
8
05
100
AcDbCircle
62
2
6
CONTINUOUS
10
47.9761770000
20
226.4439780000
40
1.0000000000
100
AcDbArc
50
270.0000000000
51
360.0000000000
0
ARC
5
327
100
AcDbEntity
8
05
100
AcDbCircle
62
2
6
CONTINUOUS
10
49.9761570000
20
226.4439980000
40
0.9999800000
100
AcDbArc
50
90.0000000000
51
180.0000000000
0
LINE
5
328
100
AcDbEntity
8
05
100
AcDbLine
62
2
6
CONTINUOUS
10
80.2761770000
20
227.4439780000
11
80.2761770000
21
227.4963920000
0
LINE
5
329
100
AcDbEntity
8
05
100
AcDbLine
62
2
6
CONTINUOUS
10
80.9761970000
20
227.4439780000
11
49.9761570000
21
227.4439780000
0
LINE
5
32A
100
AcDbEntity
8
05
100
AcDbLine
62
2
6
CONTINUOUS
10
50.6761770000
20
227.4439780000
11
50.6761770000
21
227.4963920000
0
LINE
5
32B
100
AcDbEntity
8
05
100
AcDbLine
62
2
6
CONTINUOUS
10
81.2261770000
20
227.4963920000
11
68.6761770000
21
227.4963920000
0
LINE
5
32C
100
AcDbEntity
8
05
100
AcDbLine
62
2
6
CONTINUOUS
10
62.2761770000
20
227.4963920000
11
49.7261770000
21
227.4963920000
0
LINE
5
32D
100
AcDbEntity
8
RAHMEN
100
AcDbLine
62
7
6
CONTINUOUS
10
210.0000000000
20
0.0000000000
11
210.0000000000
21
297.0000000000
0
LINE
5
32E
100
AcDbEntity
8
RAHMEN
100
AcDbLine
62
7
6
CONTINUOUS
10
210.0000000000
20
297.0000000000
11
0.0000000000
21
297.0000000000
0
LINE
5
32F
100
AcDbEntity
8
RAHMEN
100
AcDbLine
62
7
6
CONTINUOUS
10
0.0000000000
20
297.0000000000
11
0.0000000000
21
0.0000000000
0
LINE
5
330
100
AcDbEntity
8
RAHMEN
100
AcDbLine
62
7
6
CONTINUOUS
10
0.0000000000
20
0.0000000000
11
210.0000000000
21
0.0000000000
0
LINE
5
331
100
AcDbEntity
8
05
100
AcDbLine
62
7
6
CONTINUOUS
10
97.5761270000
20
8.2089520000
11
97.8594800000
21
8.4923040000
0
LINE
5
332
100
AcDbEntity
8
05
100
AcDbLine
62
7
6
CONTINUOUS
10
99.6202690000
20
10.2530940000
11
100.0602470000
21
10.6930720000
0
LINE
5
333
100
AcDbEntity
8
05
100
AcDbLine
62
7
6
CONTINUOUS
10
98.5024150000
20
9.1352400000
11
98.7923930000
21
9.4252180000
0
LINE
5
334
100
AcDbEntity
8
05
100
AcDbLine
62
7
6
CONTINUOUS
10
97.2579290000
20
8.2089520000
11
97.9501160000
21
8.9011390000
0
LINE
5
335
100
AcDbEntity
8
05
100
AcDbLine
62
7
6
CONTINUOUS
10
99.3020710000
20
10.2530940000
11
99.7420490000
21
10.6930720000
0
LINE
5
336
100
AcDbEntity
8
05
100
AcDbLine
62
7
6
CONTINUOUS
10
98.1842170000
20
9.1352400000
11
98.4741950000
21
9.4252180000
0
LINE
5
337
100
AcDbEntity
8
05
100
AcDbLine
62
7
6
CONTINUOUS
10
96.9397310000
20
8.2089520000
11
98.1559970000
21
9.4252180000
0
LINE
5
338
100
AcDbEntity
8
05
100
AcDbLine
62
7
6
CONTINUOUS
10
98.9838730000
20
10.2530940000
11
99.4238510000
21
10.6930720000
0
LINE
5
339
100
AcDbEntity
8
05
100
AcDbLine
62
7
6
CONTINUOUS
10
96.6215330000
20
8.2089520000
11
98.1313890000
21
9.7188080000
0
LINE
5
33A
100
AcDbEntity
8
05
100
AcDbLine
62
7
6
CONTINUOUS
10
98.6656750000
20
10.2530940000
11
99.1056530000
21
10.6930720000
0
LINE
5
33B
100
AcDbEntity
8
05
100
AcDbLine
62
7
6
CONTINUOUS
10
96.3033350000
20
8.2089520000
11
98.2220250000
21
10.1276420000
0
LINE
5
33C
100
AcDbEntity
8
05
100
AcDbLine
62
7
6
CONTINUOUS
10
98.3474770000
20
10.2530940000
11
98.7874550000
21
10.6930720000
0
LINE
5
33D
100
AcDbEntity
8
05
100
AcDbLine
62
7
6
CONTINUOUS
10
96.1183660000
20
8.3421810000
11
98.4692570000
21
10.6930720000
0
LINE
5
33E
100
AcDbEntity
8
05
100
AcDbLine
62
7
6
CONTINUOUS
10
96.2090020000
20
8.7510150000
11
98.1510590000
21
10.6930720000
0
LINE
5
33F
100
AcDbEntity
8
05
100
AcDbLine
62
7
6
CONTINUOUS
10
96.2996390000
20
9.1598500000
11
97.8328610000
21
10.6930720000
0
LINE
5
340
100
AcDbEntity
8
05
100
AcDbLine
62
7
6
CONTINUOUS
10
96.3902750000
20
9.5686840000
11
97.5146630000
21
10.6930720000
0
LINE
5
341
100
AcDbEntity
8
05
100
AcDbLine
62
7
6
CONTINUOUS
10
96.4809110000
20
9.9775190000
11
97.1964650000
21
10.6930720000
0
LINE
5
342
100
AcDbEntity
8
05
100
AcDbLine
62
7
6
CONTINUOUS
10
96.5715480000
20
10.3863530000
11
96.8782670000
21
10.6930720000
0
LINE
5
343
100
AcDbEntity
8
05
100
AcDbLine
62
7
6
CONTINUOUS
10
95.9390390000
20
10.0720420000
11
95.9639990000
21
10.0970020000
0
LINE
5
344
100
AcDbEntity
8
05
100
AcDbLine
62
7
6
CONTINUOUS
10
93.7577510000
20
8.2089520000
11
93.9600800000
21
8.4112820000
0
LINE
5
345
100
AcDbEntity
8
05
100
AcDbLine
62
7
6
CONTINUOUS
10
95.6208410000
20
10.0720420000
11
96.0546360000
21
10.5058370000
0
LINE
5
346
100
AcDbEntity
8
05
100
AcDbLine
62
7
6
CONTINUOUS
10
93.4395530000
20
8.2089520000
11
94.0507170000
21
8.8201160000
0
LINE
5
347
100
AcDbEntity
8
05
100
AcDbLine
62
7
6
CONTINUOUS
10
95.3026430000
20
10.0720420000
11
95.9236730000
21
10.6930720000
0
LINE
5
348
100
AcDbEntity
8
05
100
AcDbLine
62
7
6
CONTINUOUS
10
93.1213550000
20
8.2089520000
11
94.1413530000
21
9.2289510000
0
LINE
5
349
100
AcDbEntity
8
05
100
AcDbLine
62
7
6
CONTINUOUS
10
94.9844450000
20
10.0720420000
11
95.6054740000
21
10.6930720000
0
LINE
5
34A
100
AcDbEntity
8
05
100
AcDbLine
62
7
6
CONTINUOUS
10
92.8031570000
20
8.2089520000
11
94.2319900000
21
9.6377850000
0
LINE
5
34B
100
AcDbEntity
8
05
100
AcDbLine
62
7
6
CONTINUOUS
10
94.6662460000
20
10.0720420000
11
95.2872760000
21
10.6930720000
0
LINE
5
34C
100
AcDbEntity
8
05
100
AcDbLine
62
7
6
CONTINUOUS
10
92.4849590000
20
8.2089520000
11
94.3226260000
21
10.0466200000
0
LINE
5
34D
100
AcDbEntity
8
05
100
AcDbLine
62
7
6
CONTINUOUS
10
94.3480480000
20
10.0720420000
11
94.9690780000
21
10.6930720000
0
LINE
5
34E
100
AcDbEntity
8
05
100
AcDbLine
62
7
6
CONTINUOUS
10
92.2189660000
20
8.2611580000
11
94.6508800000
21
10.6930720000
0
LINE
5
34F
100
AcDbEntity
8
05
100
AcDbLine
62
7
6
CONTINUOUS
10
92.3096030000
20
8.6699920000
11
94.3326820000
21
10.6930720000
0
LINE
5
350
100
AcDbEntity
8
05
100
AcDbLine
62
7
6
CONTINUOUS
10
92.4002390000
20
9.0788270000
11
94.0144840000
21
10.6930720000
0
LINE
5
351
100
AcDbEntity
8
05
100
AcDbLine
62
7
6
CONTINUOUS
10
92.4908760000
20
9.4876610000
11
93.6962860000
21
10.6930720000
0
LINE
5
352
100
AcDbEntity
8
05
100
AcDbLine
62
7
6
CONTINUOUS
10
92.5815120000
20
9.8964960000
11
93.3780880000
21
10.6930720000
0
LINE
5
353
100
AcDbEntity
8
05
100
AcDbLine
62
7
6
CONTINUOUS
10
92.4388600000
20
10.0720420000
11
93.0598900000
21
10.6930720000
0
LINE
5
354
100
AcDbEntity
8
05
100
AcDbLine
62
7
6
CONTINUOUS
10
92.1206620000
20
10.0720420000
11
92.7416920000
21
10.6930720000
0
LINE
5
355
100
AcDbEntity
8
05
100
AcDbLine
62
7
6
CONTINUOUS
10
91.8024640000
20
10.0720420000
11
92.4234940000
21
10.6930720000
0
LINE
5
356
100
AcDbEntity
8
05
100
AcDbLine
62
7
6
CONTINUOUS
10
89.8883760000
20
8.4761520000
11
90.3685390000
21
8.9563150000
0
LINE
5
357
100
AcDbEntity
8
05
100
AcDbLine
62
7
6
CONTINUOUS
10
91.4842660000
20
10.0720420000
11
92.1052960000
21
10.6930720000
0
LINE
5
358
100
AcDbEntity
8
05
100
AcDbLine
62
7
6
CONTINUOUS
10
89.4054660000
20
8.3114400000
11
90.4591750000
21
9.3651490000
0
LINE
5
359
100
AcDbEntity
8
05
100
AcDbLine
62
7
6
CONTINUOUS
10
91.1660680000
20
10.0720420000
11
91.7870980000
21
10.6930720000
0
LINE
5
35A
100
AcDbEntity
8
05
100
AcDbLine
62
7
6
CONTINUOUS
10
89.0027690000
20
8.2269410000
11
90.5498110000
21
9.7739840000
0
LINE
5
35B
100
AcDbEntity
8
05
100
AcDbLine
62
7
6
CONTINUOUS
10
91.1305160000
20
10.3546880000
11
91.4689000000
21
10.6930720000
0
LINE
5
35C
100
AcDbEntity
8
05
100
AcDbLine
62
7
6
CONTINUOUS
10
88.6368590000
20
8.1792300000
11
90.6404480000
21
10.1828180000
0
LINE
5
35D
100
AcDbEntity
8
05
100
AcDbLine
62
7
6
CONTINUOUS
10
88.2894110000
20
8.1499790000
11
90.7310840000
21
10.5916520000
0
LINE
5
35E
100
AcDbEntity
8
05
100
AcDbLine
62
7
6
CONTINUOUS
10
87.9558910000
20
8.1346570000
11
90.5143060000
21
10.6930720000
0
LINE
5
35F
100
AcDbEntity
8
05
100
AcDbLine
62
7
6
CONTINUOUS
10
87.6346880000
20
8.1316520000
11
88.3351190000
21
8.8320840000
0
LINE
5
360
100
AcDbEntity
8
05
100
AcDbLine
62
7
6
CONTINUOUS
10
88.7236060000
20
9.2205700000
11
90.1961080000
21
10.6930720000
0
LINE
5
361
100
AcDbEntity
8
05
100
AcDbLine
62
7
6
CONTINUOUS
10
87.3245180000
20
8.1396810000
11
87.9444690000
21
8.7596310000
0
LINE
5
362
100
AcDbEntity
8
05
100
AcDbLine
62
7
6
CONTINUOUS
10
88.8142420000
20
9.6294040000
11
89.8779100000
21
10.6930720000
0
LINE
5
363
100
AcDbEntity
8
05
100
AcDbLine
62
7
6
CONTINUOUS
10
87.0243430000
20
8.1577030000
11
87.6233120000
21
8.7566730000
0
LINE
5
364
100
AcDbEntity
8
05
100
AcDbLine
62
7
6
CONTINUOUS
10
88.9048780000
20
10.0382390000
11
89.5597110000
21
10.6930720000
0
LINE
5
365
100
AcDbEntity
8
05
100
AcDbLine
62
7
6
CONTINUOUS
10
86.7333060000
20
8.1848640000
11
87.3407990000
21
8.7923570000
0
LINE
5
366
100
AcDbEntity
8
05
100
AcDbLine
62
7
6
CONTINUOUS
10
88.9955150000
20
10.4470730000
11
89.2415130000
21
10.6930720000
0
LINE
5
367
100
AcDbEntity
8
05
100
AcDbLine
62
7
6
CONTINUOUS
10
86.4520070000
20
8.2217640000
11
87.0972290000
21
8.8669850000
0
LINE
5
368
100
AcDbEntity
8
05
100
AcDbLine
62
7
6
CONTINUOUS
10
86.1841710000
20
8.2721250000
11
86.9024090000
21
8.9903630000
0
LINE
5
369
100
AcDbEntity
8
05
100
AcDbLine
62
7
6
CONTINUOUS
10
85.9287580000
20
8.3349100000
11
86.8448360000
21
9.2509890000
0
LINE
5
36A
100
AcDbEntity
8
05
100
AcDbLine
62
7
6
CONTINUOUS
10
85.6873210000
20
8.4116710000
11
86.9354730000
21
9.6598230000
0
LINE
5
36B
100
AcDbEntity
8
05
100
AcDbLine
62
7
6
CONTINUOUS
10
85.4667180000
20
8.5092670000
11
87.0261090000
21
10.0686580000
0
LINE
5
36C
100
AcDbEntity
8
05
100
AcDbLine
62
7
6
CONTINUOUS
10
85.2651030000
20
8.6258500000
11
87.1167450000
21
10.4774920000
0
LINE
5
36D
100
AcDbEntity
8
05
100
AcDbLine
62
7
6
CONTINUOUS
10
85.1018940000
20
8.7808390000
11
87.0141270000
21
10.6930720000
0
LINE
5
36E
100
AcDbEntity
8
05
100
AcDbLine
62
7
6
CONTINUOUS
10
85.1092480000
20
9.1063910000
11
86.6959290000
21
10.6930720000
0
LINE
5
36F
100
AcDbEntity
8
05
100
AcDbLine
62
7
6
CONTINUOUS
10
83.8936110000
20
8.2089520000
11
84.2024780000
21
8.5178190000
0
LINE
5
370
100
AcDbEntity
8
05
100
AcDbLine
62
7
6
CONTINUOUS
10
85.1998850000
20
9.5152260000
11
86.3777310000
21
10.6930720000
0
LINE
5
371
100
AcDbEntity
8
05
100
AcDbLine
62
7
6
CONTINUOUS
10
83.5754130000
20
8.2089520000
11
84.0153920000
21
8.6489310000
0
LINE
5
372
100
AcDbEntity
8
05
100
AcDbLine
62
7
6
CONTINUOUS
10
85.2905210000
20
9.9240600000
11
86.0595330000
21
10.6930720000
0
LINE
5
373
100
AcDbEntity
8
05
100
AcDbLine
62
7
6
CONTINUOUS
10
83.2572150000
20
8.2089520000
11
83.6971940000
21
8.6489310000
0
LINE
5
374
100
AcDbEntity
8
05
100
AcDbLine
62
7
6
CONTINUOUS
10
85.3811580000
20
10.3328950000
11
85.7413350000
21
10.6930720000
0
LINE
5
375
100
AcDbEntity
8
05
100
AcDbLine
62
7
6
CONTINUOUS
10
82.9390170000
20
8.2089520000
11
83.3789960000
21
8.6489310000
0
LINE
5
376
100
AcDbEntity
8
05
100
AcDbLine
62
7
6
CONTINUOUS
10
84.0360880000
20
9.3060230000
11
84.1751650000
21
9.4451000000
0
LINE
5
377
100
AcDbEntity
8
05
100
AcDbLine
62
7
6
CONTINUOUS
10
82.6208190000
20
8.2089520000
11
83.0607970000
21
8.6489310000
0
LINE
5
378
100
AcDbEntity
8
05
100
AcDbLine
62
7
6
CONTINUOUS
10
83.7178900000
20
9.3060230000
11
84.0078680000
21
9.5960010000
0
LINE
5
379
100
AcDbEntity
8
05
100
AcDbLine
62
7
6
CONTINUOUS
10
82.3026210000
20
8.2089520000
11
82.7425990000
21
8.6489310000
0
LINE
5
37A
100
AcDbEntity
8
05
100
AcDbLine
62
7
6
CONTINUOUS
10
84.3467620000
20
10.2530940000
11
84.6556600000
21
10.5619910000
0
LINE
5
37B
100
AcDbEntity
8
05
100
AcDbLine
62
7
6
CONTINUOUS
10
83.3996920000
20
9.3060230000
11
83.6896700000
21
9.5960010000
0
LINE
5
37C
100
AcDbEntity
8
05
100
AcDbLine
62
7
6
CONTINUOUS
10
81.9844230000
20
8.2089520000
11
82.4244010000
21
8.6489310000
0
LINE
5
37D
100
AcDbEntity
8
05
100
AcDbLine
62
7
6
CONTINUOUS
10
84.0285640000
20
10.2530940000
11
84.4685430000
21
10.6930720000
0
LINE
5
37E
100
AcDbEntity
8
05
100
AcDbLine
62
7
6
CONTINUOUS
10
83.0814940000
20
9.3060230000
11
83.3714720000
21
9.5960010000
0
LINE
5
37F
100
AcDbEntity
8
05
100
AcDbLine
62
7
6
CONTINUOUS
10
81.6662250000
20
8.2089520000
11
82.1062030000
21
8.6489310000
0
LINE
5
380
100
AcDbEntity
8
05
100
AcDbLine
62
7
6
CONTINUOUS
10
83.7103660000
20
10.2530940000
11
84.1503450000
21
10.6930720000
0
LINE
5
381
100
AcDbEntity
8
05
100
AcDbLine
62
7
6
CONTINUOUS
10
82.7632960000
20
9.3060230000
11
83.0532740000
21
9.5960010000
0
LINE
5
382
100
AcDbEntity
8
05
100
AcDbLine
62
7
6
CONTINUOUS
10
81.3480270000
20
8.2089520000
11
81.7880050000
21
8.6489310000
0
LINE
5
383
100
AcDbEntity
8
05
100
AcDbLine
62
7
6
CONTINUOUS
10
83.3921680000
20
10.2530940000
11
83.8321470000
21
10.6930720000
0
LINE
5
384
100
AcDbEntity
8
05
100
AcDbLine
62
7
6
CONTINUOUS
10
82.4450970000
20
9.3060230000
11
82.7350760000
21
9.5960010000
0
LINE
5
385
100
AcDbEntity
8
05
100
AcDbLine
62
7
6
CONTINUOUS
10
81.0298290000
20
8.2089520000
11
81.4698070000
21
8.6489310000
0
LINE
5
386
100
AcDbEntity
8
05
100
AcDbLine
62
7
6
CONTINUOUS
10
83.0739700000
20
10.2530940000
11
83.5139480000
21
10.6930720000
0
LINE
5
387
100
AcDbEntity
8
05
100
AcDbLine
62
7
6
CONTINUOUS
10
82.1268990000
20
9.3060230000
11
82.4168780000
21
9.5960010000
0
LINE
5
388
100
AcDbEntity
8
05
100
AcDbLine
62
7
6
CONTINUOUS
10
80.7116310000
20
8.2089520000
11
81.3186940000
21
8.8160160000
0
LINE
5
389
100
AcDbEntity
8
05
100
AcDbLine
62
7
6
CONTINUOUS
10
82.7557720000
20
10.2530940000
11
83.1957500000
21
10.6930720000
0
LINE
5
38A
100
AcDbEntity
8
05
100
AcDbLine
62
7
6
CONTINUOUS
10
81.8087010000
20
9.3060230000
11
82.0986800000
21
9.5960010000
0
LINE
5
38B
100
AcDbEntity
8
05
100
AcDbLine
62
7
6
CONTINUOUS
10
80.3934330000
20
8.2089520000
11
81.4093310000
21
9.2248500000
0
LINE
5
38C
100
AcDbEntity
8
05
100
AcDbLine
62
7
6
CONTINUOUS
10
82.4375740000
20
10.2530940000
11
82.8775520000
21
10.6930720000
0
LINE
5
38D
100
AcDbEntity
8
05
100
AcDbLine
62
7
6
CONTINUOUS
10
81.4905030000
20
9.3060230000
11
81.7804820000
21
9.5960010000
0
LINE
5
38E
100
AcDbEntity
8
05
100
AcDbLine
62
7
6
CONTINUOUS
10
80.0752350000
20
8.2089520000
11
81.4999670000
21
9.6336850000
0
LINE
5
38F
100
AcDbEntity
8
05
100
AcDbLine
62
7
6
CONTINUOUS
10
82.1193760000
20
10.2530940000
11
82.5593540000
21
10.6930720000
0
LINE
5
390
100
AcDbEntity
8
05
100
AcDbLine
62
7
6
CONTINUOUS
10
79.7570370000
20
8.2089520000
11
81.5906030000
21
10.0425190000
0
LINE
5
391
100
AcDbEntity
8
05
100
AcDbLine
62
7
6
CONTINUOUS
10
81.8011780000
20
10.2530940000
11
82.2411560000
21
10.6930720000
0
LINE
5
392
100
AcDbEntity
8
05
100
AcDbLine
62
7
6
CONTINUOUS
10
79.4869440000
20
8.2570570000
11
81.9229580000
21
10.6930720000
0
LINE
5
393
100
AcDbEntity
8
05
100
AcDbLine
62
7
6
CONTINUOUS
10
79.5775800000
20
8.6658920000
11
81.6047600000
21
10.6930720000
0
LINE
5
394
100
AcDbEntity
8
05
100
AcDbLine
62
7
6
CONTINUOUS
10
79.6682170000
20
9.0747260000
11
81.2865620000
21
10.6930720000
0
LINE
5
395
100
AcDbEntity
8
05
100
AcDbLine
62
7
6
CONTINUOUS
10
78.4842440000
20
8.2089520000
11
78.6617050000
21
8.3864130000
0
LINE
5
396
100
AcDbEntity
8
05
100
AcDbLine
62
7
6
CONTINUOUS
10
79.7588530000
20
9.4835610000
11
80.9683640000
21
10.6930720000
0
LINE
5
397
100
AcDbEntity
8
05
100
AcDbLine
62
7
6
CONTINUOUS
10
78.1660460000
20
8.2089520000
11
78.7523410000
21
8.7952470000
0
LINE
5
398
100
AcDbEntity
8
05
100
AcDbLine
62
7
6
CONTINUOUS
10
79.8494890000
20
9.8923950000
11
80.6501660000
21
10.6930720000
0
LINE
5
399
100
AcDbEntity
8
05
100
AcDbLine
62
7
6
CONTINUOUS
10
77.8478480000
20
8.2089520000
11
78.8429780000
21
9.2040820000
0
LINE
5
39A
100
AcDbEntity
8
05
100
AcDbLine
62
7
6
CONTINUOUS
10
79.9401260000
20
10.3012300000
11
80.3319680000
21
10.6930720000
0
LINE
5
39B
100
AcDbEntity
8
05
100
AcDbLine
62
7
6
CONTINUOUS
10
77.5296500000
20
8.2089520000
11
78.9336140000
21
9.6129160000
0
LINE
5
39C
100
AcDbEntity
8
05
100
AcDbLine
62
7
6
CONTINUOUS
10
77.2114520000
20
8.2089520000
11
79.0242510000
21
10.0217510000
0
LINE
5
39D
100
AcDbEntity
8
05
100
AcDbLine
62
7
6
CONTINUOUS
10
76.8932540000
20
8.2089520000
11
79.1148870000
21
10.4305850000
0
LINE
5
39E
100
AcDbEntity
8
05
100
AcDbLine
62
7
6
CONTINUOUS
10
76.6255330000
20
8.2594290000
11
79.0591760000
21
10.6930720000
0
LINE
5
39F
100
AcDbEntity
8
05
100
AcDbLine
62
7
6
CONTINUOUS
10
76.4580220000
20
8.4101170000
11
78.7409780000
21
10.6930720000
0
LINE
5
3A0
100
AcDbEntity
8
05
100
AcDbLine
62
7
6
CONTINUOUS
10
76.2905120000
20
8.5608040000
11
78.4227800000
21
10.6930720000
0
LINE
5
3A1
100
AcDbEntity
8
05
100
AcDbLine
62
7
6
CONTINUOUS
10
76.1230020000
20
8.7114920000
11
77.1030810000
21
9.6915710000
0
LINE
5
3A2
100
AcDbEntity
8
05
100
AcDbLine
62
7
6
CONTINUOUS
10
77.2831370000
20
9.8716270000
11
78.1045820000
21
10.6930720000
0
LINE
5
3A3
100
AcDbEntity
8
05
100
AcDbLine
62
7
6
CONTINUOUS
10
75.9554910000
20
8.8621800000
11
76.9163070000
21
9.8229950000
0
LINE
5
3A4
100
AcDbEntity
8
05
100
AcDbLine
62
7
6
CONTINUOUS
10
77.3737730000
20
10.2804620000
11
77.7863840000
21
10.6930720000
0
LINE
5
3A5
100
AcDbEntity
8
05
100
AcDbLine
62
7
6
CONTINUOUS
10
75.7879810000
20
9.0128680000
11
76.7295320000
21
9.9544190000
0
LINE
5
3A6
100
AcDbEntity
8
05
100
AcDbLine
62
7
6
CONTINUOUS
10
77.4644100000
20
10.6892960000
11
77.4681860000
21
10.6930720000
0
LINE
5
3A7
100
AcDbEntity
8
05
100
AcDbLine
62
7
6
CONTINUOUS
10
74.6658680000
20
8.2089520000
11
74.8620460000
21
8.4051310000
0
LINE
5
3A8
100
AcDbEntity
8
05
100
AcDbLine
62
7
6
CONTINUOUS
10
75.6204710000
20
9.1635550000
11
76.5427580000
21
10.0858420000
0
LINE
5
3A9
100
AcDbEntity
8
05
100
AcDbLine
62
7
6
CONTINUOUS
10
74.3476700000
20
8.2089520000
11
74.9526830000
21
8.8139650000
0
LINE
5
3AA
100
AcDbEntity
8
05
100
AcDbLine
62
7
6
CONTINUOUS
10
75.4529600000
20
9.3142430000
11
76.3559830000
21
10.2172660000
0
LINE
5
3AB
100
AcDbEntity
8
05
100
AcDbLine
62
7
6
CONTINUOUS
10
74.0294720000
20
8.2089520000
11
75.0433190000
21
9.2228000000
0
LINE
5
3AC
100
AcDbEntity
8
05
100
AcDbLine
62
7
6
CONTINUOUS
10
75.2854500000
20
9.4649310000
11
76.1692090000
21
10.3486900000
0
LINE
5
3AD
100
AcDbEntity
8
05
100
AcDbLine
62
7
6
CONTINUOUS
10
73.7112740000
20
8.2089520000
11
75.9824350000
21
10.4801130000
0
LINE
5
3AE
100
AcDbEntity
8
05
100
AcDbLine
62
7
6
CONTINUOUS
10
73.3930760000
20
8.2089520000
11
75.7956600000
21
10.6115370000
0
LINE
5
3AF
100
AcDbEntity
8
05
100
AcDbLine
62
7
6
CONTINUOUS
10
73.1209320000
20
8.2550070000
11
75.5589970000
21
10.6930720000
0
LINE
5
3B0
100
AcDbEntity
8
05
100
AcDbLine
62
7
6
CONTINUOUS
10
73.2115690000
20
8.6638420000
11
75.2407990000
21
10.6930720000
0
LINE
5
3B1
100
AcDbEntity
8
05
100
AcDbLine
62
7
6
CONTINUOUS
10
73.3022050000
20
9.0726760000
11
74.9226010000
21
10.6930720000
0
LINE
5
3B2
100
AcDbEntity
8
05
100
AcDbLine
62
7
6
CONTINUOUS
10
73.3928420000
20
9.4815110000
11
74.6044030000
21
10.6930720000
0
LINE
5
3B3
100
AcDbEntity
8
05
100
AcDbLine
62
7
6
CONTINUOUS
10
73.4834780000
20
9.8903450000
11
74.2862050000
21
10.6930720000
0
LINE
5
3B4
100
AcDbEntity
8
05
100
AcDbLine
62
7
6
CONTINUOUS
10
73.5741150000
20
10.2991800000
11
73.9680070000
21
10.6930720000
0
LINE
5
3B5
100
AcDbEntity
8
05
100
AcDbLine
62
7
6
CONTINUOUS
10
98.8206130000
20
9.1352400000
11
99.1105910000
21
9.4252180000
0
LINE
5
3B6
100
AcDbEntity
8
05
100
AcDbLine
62
7
6
CONTINUOUS
10
99.8666600000
20
10.1812870000
11
100.3784450000
21
10.6930720000
0
LINE
5
3B7
100
AcDbEntity
8
05
100
AcDbLine
62
7
6
CONTINUOUS
10
99.1388110000
20
9.1352400000
11
99.4292410000
21
9.4256700000
0
LINE
5
3B8
100
AcDbEntity
8
05
100
AcDbLine
62
7
6
CONTINUOUS
10
99.9467390000
20
9.9431670000
11
100.6966430000
21
10.6930720000
0
LINE
5
3B9
100
AcDbEntity
8
05
100
AcDbLine
62
7
6
CONTINUOUS
10
99.4562560000
20
9.1344860000
11
101.0146710000
21
10.6929020000
0
LINE
5
3BA
100
AcDbEntity
8
05
100
AcDbLine
62
7
6
CONTINUOUS
10
99.6305160000
20
8.9905480000
11
101.2989430000
21
10.6589760000
0
LINE
5
3BB
100
AcDbEntity
8
05
100
AcDbLine
62
7
6
CONTINUOUS
10
99.6130000000
20
8.6548350000
11
101.5351130000
21
10.5769480000
0
LINE
5
3BC
100
AcDbEntity
8
05
100
AcDbLine
62
7
6
CONTINUOUS
10
99.6052610000
20
8.3288970000
11
101.7250750000
21
10.4487110000
0
LINE
5
3BD
100
AcDbEntity
8
05
100
AcDbLine
62
7
6
CONTINUOUS
10
99.8035140000
20
8.2089520000
11
101.8509000000
21
10.2563380000
0
LINE
5
3BE
100
AcDbEntity
8
05
100
AcDbLine
62
7
6
CONTINUOUS
10
100.1217120000
20
8.2089520000
11
101.2212130000
21
9.3084530000
0
LINE
5
3BF
100
AcDbEntity
8
05
100
AcDbLine
62
7
6
CONTINUOUS
10
101.2660830000
20
9.3533230000
11
101.8342290000
21
9.9214690000
0
LINE
5
3C0
100
AcDbEntity
8
05
100
AcDbLine
62
7
6
CONTINUOUS
10
100.4399100000
20
8.2089520000
11
101.3457580000
21
9.1148000000
0
LINE
5
3C1
100
AcDbEntity
8
05
100
AcDbLine
62
7
6
CONTINUOUS
10
102.6292330000
20
10.3982750000
11
102.9240300000
21
10.6930720000
0
LINE
5
3C2
100
AcDbEntity
8
05
100
AcDbLine
62
7
6
CONTINUOUS
10
100.7581080000
20
8.2089520000
11
101.3299420000
21
8.7807860000
0
LINE
5
3C3
100
AcDbEntity
8
05
100
AcDbLine
62
7
6
CONTINUOUS
10
102.5385960000
20
9.9894400000
11
103.2422280000
21
10.6930720000
0
LINE
5
3C4
100
AcDbEntity
8
05
100
AcDbLine
62
7
6
CONTINUOUS
10
101.0763060000
20
8.2089520000
11
101.3071930000
21
8.4398390000
0
LINE
5
3C5
100
AcDbEntity
8
05
100
AcDbLine
62
7
6
CONTINUOUS
10
102.4479600000
20
9.5806060000
11
103.5604260000
21
10.6930720000
0
LINE
5
3C6
100
AcDbEntity
8
05
100
AcDbLine
62
7
6
CONTINUOUS
10
102.3573230000
20
9.1717720000
11
103.8786240000
21
10.6930720000
0
LINE
5
3C7
100
AcDbEntity
8
05
100
AcDbLine
62
7
6
CONTINUOUS
10
102.2666870000
20
8.7629370000
11
104.1968220000
21
10.6930720000
0
LINE
5
3C8
100
AcDbEntity
8
05
100
AcDbLine
62
7
6
CONTINUOUS
10
102.1760510000
20
8.3541030000
11
104.3703470000
21
10.5483990000
0
LINE
5
3C9
100
AcDbEntity
8
05
100
AcDbLine
62
7
6
CONTINUOUS
10
102.3490980000
20
8.2089520000
11
104.2797100000
21
10.1395640000
0
LINE
5
3CA
100
AcDbEntity
8
05
100
AcDbLine
62
7
6
CONTINUOUS
10
102.6672960000
20
8.2089520000
11
104.1890740000
21
9.7307300000
0
LINE
5
3CB
100
AcDbEntity
8
05
100
AcDbLine
62
7
6
CONTINUOUS
10
102.9854940000
20
8.2089520000
11
104.0984370000
21
9.3218950000
0
LINE
5
3CC
100
AcDbEntity
8
05
100
AcDbLine
62
7
6
CONTINUOUS
10
105.3950670000
20
10.6185250000
11
105.4696140000
21
10.6930720000
0
LINE
5
3CD
100
AcDbEntity
8
05
100
AcDbLine
62
7
6
CONTINUOUS
10
103.3036920000
20
8.2089520000
11
104.0078010000
21
8.9130610000
0
LINE
5
3CE
100
AcDbEntity
8
05
100
AcDbLine
62
7
6
CONTINUOUS
10
105.3044300000
20
10.2096900000
11
105.7878120000
21
10.6930720000
0
LINE
5
3CF
100
AcDbEntity
8
05
100
AcDbLine
62
7
6
CONTINUOUS
10
103.6218900000
20
8.2089520000
11
103.9171640000
21
8.5042260000
0
LINE
5
3D0
100
AcDbEntity
8
05
100
AcDbLine
62
7
6
CONTINUOUS
10
105.2137940000
20
9.8008560000
11
106.1060100000
21
10.6930720000
0
LINE
5
3D1
100
AcDbEntity
8
05
100
AcDbLine
62
7
6
CONTINUOUS
10
105.1231580000
20
9.3920210000
11
106.4242080000
21
10.6930720000
0
LINE
5
3D2
100
AcDbEntity
8
05
100
AcDbLine
62
7
6
CONTINUOUS
10
105.0325210000
20
8.9831870000
11
106.7424060000
21
10.6930720000
0
LINE
5
3D3
100
AcDbEntity
8
05
100
AcDbLine
62
7
6
CONTINUOUS
10
104.9418850000
20
8.5743520000
11
107.0364400000
21
10.6689080000
0
LINE
5
3D4
100
AcDbEntity
8
05
100
AcDbLine
62
7
6
CONTINUOUS
10
104.8946830000
20
8.2089520000
11
106.9458040000
21
10.2600730000
0
LINE
5
3D5
100
AcDbEntity
8
05
100
AcDbLine
62
7
6
CONTINUOUS
10
105.2128810000
20
8.2089520000
11
106.8577180000
21
9.8537890000
0
LINE
5
3D6
100
AcDbEntity
8
05
100
AcDbLine
62
7
6
CONTINUOUS
10
105.5310790000
20
8.2089520000
11
107.4121960000
21
10.0900700000
0
LINE
5
3D7
100
AcDbEntity
8
05
100
AcDbLine
62
7
6
CONTINUOUS
10
105.8492770000
20
8.2089520000
11
107.9666750000
21
10.3263510000
0
LINE
5
3D8
100
AcDbEntity
8
05
100
AcDbLine
62
7
6
CONTINUOUS
10
106.1674750000
20
8.2089520000
11
106.5832580000
21
8.6247350000
0
LINE
5
3D9
100
AcDbEntity
8
05
100
AcDbLine
62
7
6
CONTINUOUS
10
106.9071250000
20
8.9486020000
11
108.5211540000
21
10.5626310000
0
LINE
5
3DA
100
AcDbEntity
8
05
100
AcDbLine
62
7
6
CONTINUOUS
10
106.4856730000
20
8.2089520000
11
106.4926210000
21
8.2159010000
0
LINE
5
3DB
100
AcDbEntity
8
05
100
AcDbLine
62
7
6
CONTINUOUS
10
107.3871300000
20
9.1104090000
11
108.9697930000
21
10.6930720000
0
LINE
5
3DC
100
AcDbEntity
8
05
100
AcDbLine
62
7
6
CONTINUOUS
10
107.5451590000
20
8.9502400000
11
109.2879910000
21
10.6930720000
0
LINE
5
3DD
100
AcDbEntity
8
05
100
AcDbLine
62
7
6
CONTINUOUS
10
107.7031880000
20
8.7900710000
11
109.6061890000
21
10.6930720000
0
LINE
5
3DE
100
AcDbEntity
8
05
100
AcDbLine
62
7
6
CONTINUOUS
10
107.8612170000
20
8.6299020000
11
109.0334790000
21
9.8021650000
0
LINE
5
3DF
100
AcDbEntity
8
05
100
AcDbLine
62
7
6
CONTINUOUS
10
109.1250400000
20
9.8937250000
11
109.9243870000
21
10.6930720000
0
LINE
5
3E0
100
AcDbEntity
8
05
100
AcDbLine
62
7
6
CONTINUOUS
10
108.0192460000
20
8.4697330000
11
109.1915080000
21
9.6419950000
0
LINE
5
3E1
100
AcDbEntity
8
05
100
AcDbLine
62
7
6
CONTINUOUS
10
109.6795190000
20
10.1300060000
11
110.2425850000
21
10.6930720000
0
LINE
5
3E2
100
AcDbEntity
8
05
100
AcDbLine
62
7
6
CONTINUOUS
10
108.1772750000
20
8.3095640000
11
109.3495370000
21
9.4818260000
0
LINE
5
3E3
100
AcDbEntity
8
05
100
AcDbLine
62
7
6
CONTINUOUS
10
110.2339980000
20
10.3662870000
11
110.5607830000
21
10.6930720000
0
LINE
5
3E4
100
AcDbEntity
8
05
100
AcDbLine
62
7
6
CONTINUOUS
10
108.3948610000
20
8.2089520000
11
109.5075660000
21
9.3216570000
0
LINE
5
3E5
100
AcDbEntity
8
05
100
AcDbLine
62
7
6
CONTINUOUS
10
110.7884760000
20
10.6025670000
11
110.8789810000
21
10.6930720000
0
LINE
5
3E6
100
AcDbEntity
8
05
100
AcDbLine
62
7
6
CONTINUOUS
10
108.7130590000
20
8.2089520000
11
109.6655950000
21
9.1614880000
0
LINE
5
3E7
100
AcDbEntity
8
05
100
AcDbLine
62
7
6
CONTINUOUS
10
109.0312570000
20
8.2089520000
11
109.8236240000
21
9.0013190000
0
LINE
5
3E8
100
AcDbEntity
8
05
100
AcDbLine
62
7
6
CONTINUOUS
10
109.3494550000
20
8.2089520000
11
109.9816530000
21
8.8411500000
0
LINE
5
3E9
100
AcDbEntity
8
05
100
AcDbLine
62
7
6
CONTINUOUS
10
109.6676530000
20
8.2089520000
11
110.1396820000
21
8.6809810000
0
LINE
5
3EA
100
AcDbEntity
8
05
100
AcDbLine
62
7
6
CONTINUOUS
10
109.9858510000
20
8.2089520000
11
110.2977110000
21
8.5208120000
0
LINE
5
3EB
100
AcDbEntity
8
05
100
AcDbLine
62
7
6
CONTINUOUS
10
110.3040500000
20
8.2089520000
11
110.4557400000
21
8.3606430000
0
LINE
5
3EC
100
AcDbEntity
8
05
100
AcDbLine
62
7
6
CONTINUOUS
10
115.3077010000
20
10.6670200000
11
115.3344820000
21
10.6938010000
0
LINE
5
3ED
100
AcDbEntity
8
05
100
AcDbLine
62
7
6
CONTINUOUS
10
114.3531070000
20
9.3942270000
11
115.6526800000
21
10.6938010000
0
LINE
5
3EE
100
AcDbEntity
8
05
100
AcDbLine
62
7
6
CONTINUOUS
10
113.4860300000
20
8.2089520000
11
115.9708790000
21
10.6938010000
0
LINE
5
3EF
100
AcDbEntity
8
05
100
AcDbLine
62
7
6
CONTINUOUS
10
113.8042280000
20
8.2089520000
11
116.2890770000
21
10.6938010000
0
LINE
5
3F0
100
AcDbEntity
8
05
100
AcDbLine
62
7
6
CONTINUOUS
10
114.1224260000
20
8.2089520000
11
116.6072750000
21
10.6938010000
0
LINE
5
3F1
100
AcDbEntity
8
05
100
AcDbLine
62
7
6
CONTINUOUS
10
114.4406240000
20
8.2089520000
11
116.9254730000
21
10.6938010000
0
LINE
5
3F2
100
AcDbEntity
8
05
100
AcDbLine
62
7
6
CONTINUOUS
10
114.7588220000
20
8.2089520000
11
116.2846820000
21
9.7348120000
0
LINE
5
3F3
100
AcDbEntity
8
05
100
AcDbLine
62
7
6
CONTINUOUS
10
116.8285960000
20
10.2787260000
11
117.2436710000
21
10.6938010000
0
LINE
5
3F4
100
AcDbEntity
8
05
100
AcDbLine
62
7
6
CONTINUOUS
10
115.0770200000
20
8.2089520000
11
115.3300880000
21
8.4620200000
0
LINE
5
3F5
100
AcDbEntity
8
05
100
AcDbLine
62
7
6
CONTINUOUS
10
116.8922360000
20
10.0241680000
11
117.5618690000
21
10.6938010000
0
LINE
5
3F6
100
AcDbEntity
8
05
100
AcDbLine
62
7
6
CONTINUOUS
10
115.5570520000
20
8.6889840000
11
115.9302400000
21
9.0621710000
0
LINE
5
3F7
100
AcDbEntity
8
05
100
AcDbLine
62
7
6
CONTINUOUS
10
115.8752500000
20
8.6889840000
11
116.2484380000
21
9.0621710000
0
LINE
5
3F8
100
AcDbEntity
8
05
100
AcDbLine
62
7
6
CONTINUOUS
10
116.9558760000
20
9.7696100000
11
117.8800670000
21
10.6938010000
0
LINE
5
3F9
100
AcDbEntity
8
05
100
AcDbLine
62
7
6
CONTINUOUS
10
116.1934480000
20
8.6889840000
11
116.5666360000
21
9.0621710000
0
LINE
5
3FA
100
AcDbEntity
8
05
100
AcDbLine
62
7
6
CONTINUOUS
10
117.0195150000
20
9.5150510000
11
118.1982650000
21
10.6938010000
0
LINE
5
3FB
100
AcDbEntity
8
05
100
AcDbLine
62
7
6
CONTINUOUS
10
116.5116460000
20
8.6889840000
11
116.8848340000
21
9.0621710000
0
LINE
5
3FC
100
AcDbEntity
8
05
100
AcDbLine
62
7
6
CONTINUOUS
10
117.0831550000
20
9.2604930000
11
118.3292860000
21
10.5066230000
0
LINE
5
3FD
100
AcDbEntity
8
05
100
AcDbLine
62
7
6
CONTINUOUS
10
116.8298440000
20
8.6889840000
11
118.3929250000
21
10.2520650000
0
LINE
5
3FE
100
AcDbEntity
8
05
100
AcDbLine
62
7
6
CONTINUOUS
10
117.1480420000
20
8.6889840000
11
118.4565650000
21
9.9975060000
0
LINE
5
3FF
100
AcDbEntity
8
05
100
AcDbLine
62
7
6
CONTINUOUS
10
117.2740740000
20
8.4968170000
11
118.5202040000
21
9.7429480000
0
LINE
5
400
100
AcDbEntity
8
05
100
AcDbLine
62
7
6
CONTINUOUS
10
117.3377130000
20
8.2422590000
11
118.5838440000
21
9.4883900000
0
LINE
5
401
100
AcDbEntity
8
05
100
AcDbLine
62
7
6
CONTINUOUS
10
117.6226050000
20
8.2089520000
11
118.6474840000
21
9.2338310000
0
LINE
5
402
100
AcDbEntity
8
05
100
AcDbLine
62
7
6
CONTINUOUS
10
117.9408030000
20
8.2089520000
11
118.7111230000
21
8.9792730000
0
LINE
5
403
100
AcDbEntity
8
05
100
AcDbLine
62
7
6
CONTINUOUS
10
119.8640330000
20
10.1321820000
11
120.2440540000
21
10.5122030000
0
LINE
5
404
100
AcDbEntity
8
05
100
AcDbLine
62
7
6
CONTINUOUS
10
118.2590010000
20
8.2089520000
11
118.7747630000
21
8.7247140000
0
LINE
5
405
100
AcDbEntity
8
05
100
AcDbLine
62
7
6
CONTINUOUS
10
119.7959150000
20
9.7458660000
11
120.6185860000
21
10.5685370000
0
LINE
5
406
100
AcDbEntity
8
05
100
AcDbLine
62
7
6
CONTINUOUS
10
118.5771990000
20
8.2089520000
11
118.8384020000
21
8.4701560000
0
LINE
5
407
100
AcDbEntity
8
05
100
AcDbLine
62
7
6
CONTINUOUS
10
119.7277970000
20
9.3595500000
11
120.9813030000
21
10.6130560000
0
LINE
5
408
100
AcDbEntity
8
05
100
AcDbLine
62
7
6
CONTINUOUS
10
118.8953970000
20
8.2089520000
11
118.9020420000
21
8.2155970000
0
LINE
5
409
100
AcDbEntity
8
05
100
AcDbLine
62
7
6
CONTINUOUS
10
119.6596790000
20
8.9732340000
11
121.3333580000
21
10.6469130000
0
LINE
5
40A
100
AcDbEntity
8
05
100
AcDbLine
62
7
6
CONTINUOUS
10
119.6152770000
20
8.6106340000
11
121.6757100000
21
10.6710670000
0
LINE
5
40B
100
AcDbEntity
8
05
100
AcDbLine
62
7
6
CONTINUOUS
10
119.7378940000
20
8.4150530000
11
122.0091650000
21
10.6863240000
0
LINE
5
40C
100
AcDbEntity
8
05
100
AcDbLine
62
7
6
CONTINUOUS
10
119.9839510000
20
8.3429130000
11
121.3408190000
21
9.6997800000
0
LINE
5
40D
100
AcDbEntity
8
05
100
AcDbLine
62
7
6
CONTINUOUS
10
121.8827100000
20
10.2416710000
11
122.3344090000
21
10.6933700000
0
LINE
5
40E
100
AcDbEntity
8
05
100
AcDbLine
62
7
6
CONTINUOUS
10
120.2652030000
20
8.3059660000
11
121.2727010000
21
9.3134640000
0
LINE
5
40F
100
AcDbEntity
8
05
100
AcDbLine
62
7
6
CONTINUOUS
10
122.2192190000
20
10.2599820000
11
122.6520320000
21
10.6927950000
0
LINE
5
410
100
AcDbEntity
8
05
100
AcDbLine
62
7
6
CONTINUOUS
10
120.5518220000
20
8.2743870000
11
121.2250940000
21
8.9476590000
0
LINE
5
411
100
AcDbEntity
8
05
100
AcDbLine
62
7
6
CONTINUOUS
10
122.5263210000
20
10.2488860000
11
122.9625450000
21
10.6851100000
0
LINE
5
412
100
AcDbEntity
8
05
100
AcDbLine
62
7
6
CONTINUOUS
10
120.8440880000
20
8.2484550000
11
121.3438720000
21
8.7482390000
0
LINE
5
413
100
AcDbEntity
8
05
100
AcDbLine
62
7
6
CONTINUOUS
10
122.8104210000
20
10.2147880000
11
123.2663950000
21
10.6707620000
0
LINE
5
414
100
AcDbEntity
8
05
100
AcDbLine
62
7
6
CONTINUOUS
10
121.1423120000
20
8.2284810000
11
121.5883040000
21
8.6744730000
0
LINE
5
415
100
AcDbEntity
8
05
100
AcDbLine
62
7
6
CONTINUOUS
10
123.0259950000
20
10.1121640000
11
123.5639730000
21
10.6501420000
0
LINE
5
416
100
AcDbEntity
8
05
100
AcDbLine
62
7
6
CONTINUOUS
10
121.4468470000
20
8.2148180000
11
121.8836220000
21
8.6515930000
0
LINE
5
417
100
AcDbEntity
8
05
100
AcDbLine
62
7
6
CONTINUOUS
10
123.1960220000
20
9.9639930000
11
123.8556280000
21
10.6235990000
0
LINE
5
418
100
AcDbEntity
8
05
100
AcDbLine
62
7
6
CONTINUOUS
10
122.3537820000
20
9.1217520000
11
122.5334060000
21
9.3013760000
0
LINE
5
419
100
AcDbEntity
8
05
100
AcDbLine
62
7
6
CONTINUOUS
10
121.7580900000
20
8.2078620000
11
122.2048330000
21
8.6546050000
0
LINE
5
41A
100
AcDbEntity
8
05
100
AcDbLine
62
7
6
CONTINUOUS
10
123.5142200000
20
9.9639930000
11
124.1416670000
21
10.5914400000
0
LINE
5
41B
100
AcDbEntity
8
05
100
AcDbLine
62
7
6
CONTINUOUS
10
122.6288760000
20
9.0786490000
11
122.8516040000
21
9.3013760000
0
LINE
5
41C
100
AcDbEntity
8
05
100
AcDbLine
62
7
6
CONTINUOUS
10
122.0764930000
20
8.2080680000
11
122.5603930000
21
8.6919670000
0
LINE
5
41D
100
AcDbEntity
8
05
100
AcDbLine
62
7
6
CONTINUOUS
10
123.8324180000
20
9.9639930000
11
124.4223670000
21
10.5539410000
0
LINE
5
41E
100
AcDbEntity
8
05
100
AcDbLine
62
7
6
CONTINUOUS
10
122.9470740000
20
9.0786490000
11
123.1698020000
21
9.3013760000
0
LINE
5
41F
100
AcDbEntity
8
05
100
AcDbLine
62
7
6
CONTINUOUS
10
122.4025750000
20
8.2159520000
11
123.4880000000
21
9.3013760000
0
LINE
5
420
100
AcDbEntity
8
05
100
AcDbLine
62
7
6
CONTINUOUS
10
124.1506160000
20
9.9639930000
11
124.6387420000
21
10.4521180000
0
LINE
5
421
100
AcDbEntity
8
05
100
AcDbLine
62
7
6
CONTINUOUS
10
122.7369360000
20
8.2321150000
11
123.8061980000
21
9.3013760000
0
LINE
5
422
100
AcDbEntity
8
05
100
AcDbLine
62
7
6
CONTINUOUS
10
124.4688140000
20
9.9639930000
11
124.7195490000
21
10.2147280000
0
LINE
5
423
100
AcDbEntity
8
05
100
AcDbLine
62
7
6
CONTINUOUS
10
123.0319720000
20
8.2089520000
11
124.1243960000
21
9.3013760000
0
LINE
5
424
100
AcDbEntity
8
05
100
AcDbLine
62
7
6
CONTINUOUS
10
123.3501700000
20
8.2089520000
11
124.4425940000
21
9.3013760000
0
LINE
5
425
100
AcDbEntity
8
05
100
AcDbLine
62
7
6
CONTINUOUS
10
123.6683680000
20
8.2089520000
11
124.5166470000
21
9.0572320000
0
LINE
5
426
100
AcDbEntity
8
05
100
AcDbLine
62
7
6
CONTINUOUS
10
123.9865660000
20
8.2089520000
11
124.4485290000
21
8.6709160000
0
LINE
5
427
100
AcDbEntity
8
05
100
AcDbLine
62
7
6
CONTINUOUS
10
124.3047640000
20
8.2089520000
11
124.3804110000
21
8.2846000000
0
LINE
5
428
100
AcDbEntity
8
05
100
AcDbLine
62
7
6
CONTINUOUS
10
99.8961450000
20
8.2089520000
11
99.6025370000
21
8.5025600000
0
LINE
5
429
100
AcDbEntity
8
05
100
AcDbLine
62
7
6
CONTINUOUS
10
98.1776440000
20
9.9274530000
11
97.4120250000
21
10.6930720000
0
LINE
5
42A
100
AcDbEntity
8
05
100
AcDbLine
62
7
6
CONTINUOUS
10
98.9698570000
20
9.1352400000
11
98.6798790000
21
9.4252180000
0
LINE
5
42B
100
AcDbEntity
8
05
100
AcDbLine
62
7
6
CONTINUOUS
10
98.6516590000
20
9.1352400000
11
98.3616810000
21
9.4252180000
0
LINE
5
42C
100
AcDbEntity
8
05
100
AcDbLine
62
7
6
CONTINUOUS
10
98.1199030000
20
9.6669960000
11
97.0938270000
21
10.6930720000
0
LINE
5
42D
100
AcDbEntity
8
05
100
AcDbLine
62
7
6
CONTINUOUS
10
98.3334610000
20
9.1352400000
11
96.7756290000
21
10.6930720000
0
LINE
5
42E
100
AcDbEntity
8
05
100
AcDbLine
62
7
6
CONTINUOUS
10
98.0152630000
20
9.1352400000
11
96.6064980000
21
10.5440050000
0
LINE
5
42F
100
AcDbEntity
8
05
100
AcDbLine
62
7
6
CONTINUOUS
10
97.9466770000
20
8.8856280000
11
96.5487570000
21
10.2835480000
0
LINE
5
430
100
AcDbEntity
8
05
100
AcDbLine
62
7
6
CONTINUOUS
10
97.8889360000
20
8.6251710000
11
96.4910150000
21
10.0230920000
0
LINE
5
431
100
AcDbEntity
8
05
100
AcDbLine
62
7
6
CONTINUOUS
10
96.0462220000
20
10.4678850000
11
95.8210350000
21
10.6930720000
0
LINE
5
432
100
AcDbEntity
8
05
100
AcDbLine
62
7
6
CONTINUOUS
10
97.8311940000
20
8.3647150000
11
96.4332730000
21
9.7626360000
0
LINE
5
433
100
AcDbEntity
8
05
100
AcDbLine
62
7
6
CONTINUOUS
10
95.9884800000
20
10.2074290000
11
95.5028370000
21
10.6930720000
0
LINE
5
434
100
AcDbEntity
8
05
100
AcDbLine
62
7
6
CONTINUOUS
10
97.6687580000
20
8.2089520000
11
96.3755310000
21
9.5021790000
0
LINE
5
435
100
AcDbEntity
8
05
100
AcDbLine
62
7
6
CONTINUOUS
10
95.8056690000
20
10.0720420000
11
95.1846390000
21
10.6930720000
0
LINE
5
436
100
AcDbEntity
8
05
100
AcDbLine
62
7
6
CONTINUOUS
10
97.3505600000
20
8.2089520000
11
96.3177890000
21
9.2417230000
0
LINE
5
437
100
AcDbEntity
8
05
100
AcDbLine
62
7
6
CONTINUOUS
10
95.4874710000
20
10.0720420000
11
94.8664410000
21
10.6930720000
0
LINE
5
438
100
AcDbEntity
8
05
100
AcDbLine
62
7
6
CONTINUOUS
10
97.0323620000
20
8.2089520000
11
96.2600480000
21
8.9812670000
0
LINE
5
439
100
AcDbEntity
8
05
100
AcDbLine
62
7
6
CONTINUOUS
10
95.1692730000
20
10.0720420000
11
94.5482430000
21
10.6930720000
0
LINE
5
43A
100
AcDbEntity
8
05
100
AcDbLine
62
7
6
CONTINUOUS
10
96.7141640000
20
8.2089520000
11
96.2023060000
21
8.7208110000
0
LINE
5
43B
100
AcDbEntity
8
05
100
AcDbLine
62
7
6
CONTINUOUS
10
94.8510750000
20
10.0720420000
11
94.2300450000
21
10.6930720000
0
LINE
5
43C
100
AcDbEntity
8
05
100
AcDbLine
62
7
6
CONTINUOUS
10
96.3959660000
20
8.2089520000
11
96.1445640000
21
8.4603540000
0
LINE
5
43D
100
AcDbEntity
8
05
100
AcDbLine
62
7
6
CONTINUOUS
10
94.5328760000
20
10.0720420000
11
93.9118470000
21
10.6930720000
0
LINE
5
43E
100
AcDbEntity
8
05
100
AcDbLine
62
7
6
CONTINUOUS
10
94.3076510000
20
9.9790700000
11
93.5936480000
21
10.6930720000
0
LINE
5
43F
100
AcDbEntity
8
05
100
AcDbLine
62
7
6
CONTINUOUS
10
94.2499090000
20
9.7186140000
11
93.2754500000
21
10.6930720000
0
LINE
5
440
100
AcDbEntity
8
05
100
AcDbLine
62
7
6
CONTINUOUS
10
94.1921670000
20
9.4581570000
11
92.9572520000
21
10.6930720000
0
LINE
5
441
100
AcDbEntity
8
05
100
AcDbLine
62
7
6
CONTINUOUS
10
94.1344250000
20
9.1977010000
11
92.6390540000
21
10.6930720000
0
LINE
5
442
100
AcDbEntity
8
05
100
AcDbLine
62
7
6
CONTINUOUS
10
94.0766830000
20
8.9372450000
11
92.3208560000
21
10.6930720000
0
LINE
5
443
100
AcDbEntity
8
05
100
AcDbLine
62
7
6
CONTINUOUS
10
94.0189420000
20
8.6767880000
11
92.0026580000
21
10.6930720000
0
LINE
5
444
100
AcDbEntity
8
05
100
AcDbLine
62
7
6
CONTINUOUS
10
93.9612000000
20
8.4163320000
11
92.5632790000
21
9.8142530000
0
LINE
5
445
100
AcDbEntity
8
05
100
AcDbLine
62
7
6
CONTINUOUS
10
92.3054900000
20
10.0720420000
11
91.6844600000
21
10.6930720000
0
LINE
5
446
100
AcDbEntity
8
05
100
AcDbLine
62
7
6
CONTINUOUS
10
93.8503820000
20
8.2089520000
11
92.5055370000
21
9.5537970000
0
LINE
5
447
100
AcDbEntity
8
05
100
AcDbLine
62
7
6
CONTINUOUS
10
91.9872920000
20
10.0720420000
11
91.3662620000
21
10.6930720000
0
LINE
5
448
100
AcDbEntity
8
05
100
AcDbLine
62
7
6
CONTINUOUS
10
93.5321840000
20
8.2089520000
11
92.4477960000
21
9.2933400000
0
LINE
5
449
100
AcDbEntity
8
05
100
AcDbLine
62
7
6
CONTINUOUS
10
91.6690940000
20
10.0720420000
11
91.1769590000
21
10.5641770000
0
LINE
5
44A
100
AcDbEntity
8
05
100
AcDbLine
62
7
6
CONTINUOUS
10
93.2139860000
20
8.2089520000
11
92.3900540000
21
9.0328840000
0
LINE
5
44B
100
AcDbEntity
8
05
100
AcDbLine
62
7
6
CONTINUOUS
10
90.7492670000
20
10.6736710000
11
90.7298660000
21
10.6930720000
0
LINE
5
44C
100
AcDbEntity
8
05
100
AcDbLine
62
7
6
CONTINUOUS
10
91.3508960000
20
10.0720420000
11
91.1192170000
21
10.3037210000
0
LINE
5
44D
100
AcDbEntity
8
05
100
AcDbLine
62
7
6
CONTINUOUS
10
92.8957880000
20
8.2089520000
11
92.3323120000
21
8.7724280000
0
LINE
5
44E
100
AcDbEntity
8
05
100
AcDbLine
62
7
6
CONTINUOUS
10
90.6915250000
20
10.4132140000
11
90.4116680000
21
10.6930720000
0
LINE
5
44F
100
AcDbEntity
8
05
100
AcDbLine
62
7
6
CONTINUOUS
10
92.5775900000
20
8.2089520000
11
92.2745700000
21
8.5119710000
0
LINE
5
450
100
AcDbEntity
8
05
100
AcDbLine
62
7
6
CONTINUOUS
10
90.6337840000
20
10.1527580000
11
90.0934700000
21
10.6930720000
0
LINE
5
451
100
AcDbEntity
8
05
100
AcDbLine
62
7
6
CONTINUOUS
10
92.2593920000
20
8.2089520000
11
92.2168290000
21
8.2515150000
0
LINE
5
452
100
AcDbEntity
8
05
100
AcDbLine
62
7
6
CONTINUOUS
10
90.5760420000
20
9.8923020000
11
89.7752720000
21
10.6930720000
0
LINE
5
453
100
AcDbEntity
8
05
100
AcDbLine
62
7
6
CONTINUOUS
10
90.5183000000
20
9.6318460000
11
89.4570740000
21
10.6930720000
0
LINE
5
454
100
AcDbEntity
8
05
100
AcDbLine
62
7
6
CONTINUOUS
10
90.4605580000
20
9.3713890000
11
89.1388760000
21
10.6930720000
0
LINE
5
455
100
AcDbEntity
8
05
100
AcDbLine
62
7
6
CONTINUOUS
10
90.4028170000
20
9.1109330000
11
89.0084280000
21
10.5053220000
0
LINE
5
456
100
AcDbEntity
8
05
100
AcDbLine
62
7
6
CONTINUOUS
10
90.3450750000
20
8.8504770000
11
88.9506860000
21
10.2448650000
0
LINE
5
457
100
AcDbEntity
8
05
100
AcDbLine
62
7
6
CONTINUOUS
10
90.2138080000
20
8.6635450000
11
88.8929450000
21
9.9844090000
0
LINE
5
458
100
AcDbEntity
8
05
100
AcDbLine
62
7
6
CONTINUOUS
10
90.0174480000
20
8.5417070000
11
88.8352030000
21
9.7239530000
0
LINE
5
459
100
AcDbEntity
8
05
100
AcDbLine
62
7
6
CONTINUOUS
10
89.8026520000
20
8.4383050000
11
88.7774610000
21
9.4634960000
0
LINE
5
45A
100
AcDbEntity
8
05
100
AcDbLine
62
7
6
CONTINUOUS
10
89.5671730000
20
8.3555860000
11
88.7197190000
21
9.2030400000
0
LINE
5
45B
100
AcDbEntity
8
05
100
AcDbLine
62
7
6
CONTINUOUS
10
89.3151830000
20
8.2893790000
11
88.6187120000
21
8.9858500000
0
LINE
5
45C
100
AcDbEntity
8
05
100
AcDbLine
62
7
6
CONTINUOUS
10
87.1186190000
20
10.4859430000
11
86.9114890000
21
10.6930720000
0
LINE
5
45D
100
AcDbEntity
8
05
100
AcDbLine
62
7
6
CONTINUOUS
10
89.0511440000
20
8.2352190000
11
88.4221760000
21
8.8641880000
0
LINE
5
45E
100
AcDbEntity
8
05
100
AcDbLine
62
7
6
CONTINUOUS
10
87.0608770000
20
10.2254860000
11
86.5932910000
21
10.6930720000
0
LINE
5
45F
100
AcDbEntity
8
05
100
AcDbLine
62
7
6
CONTINUOUS
10
88.7736700000
20
8.1944950000
11
88.1774040000
21
8.7907610000
0
LINE
5
460
100
AcDbEntity
8
05
100
AcDbLine
62
7
6
CONTINUOUS
10
87.0031350000
20
9.9650300000
11
86.2750930000
21
10.6930720000
0
LINE
5
461
100
AcDbEntity
8
05
100
AcDbLine
62
7
6
CONTINUOUS
10
88.4851820000
20
8.1647850000
11
87.8938350000
21
8.7561320000
0
LINE
5
462
100
AcDbEntity
8
05
100
AcDbLine
62
7
6
CONTINUOUS
10
86.9453930000
20
9.7045740000
11
85.9568950000
21
10.6930720000
0
LINE
5
463
100
AcDbEntity
8
05
100
AcDbLine
62
7
6
CONTINUOUS
10
88.1877790000
20
8.1439900000
11
87.5712750000
21
8.7604950000
0
LINE
5
464
100
AcDbEntity
8
05
100
AcDbLine
62
7
6
CONTINUOUS
10
86.8876520000
20
9.4441170000
11
85.6386970000
21
10.6930720000
0
LINE
5
465
100
AcDbEntity
8
05
100
AcDbLine
62
7
6
CONTINUOUS
10
87.8806500000
20
8.1329210000
11
87.1766500000
21
8.8369210000
0
LINE
5
466
100
AcDbEntity
8
05
100
AcDbLine
62
7
6
CONTINUOUS
10
86.8299100000
20
9.1836610000
11
85.4355100000
21
10.5780610000
0
LINE
5
467
100
AcDbEntity
8
05
100
AcDbLine
62
7
6
CONTINUOUS
10
87.5628170000
20
8.1325560000
11
85.3777680000
21
10.3176050000
0
LINE
5
468
100
AcDbEntity
8
05
100
AcDbLine
62
7
6
CONTINUOUS
10
87.2330740000
20
8.1441010000
11
85.3200260000
21
10.0571490000
0
LINE
5
469
100
AcDbEntity
8
05
100
AcDbLine
62
7
6
CONTINUOUS
10
84.6846080000
20
10.6925670000
11
84.6841030000
21
10.6930720000
0
LINE
5
46A
100
AcDbEntity
8
05
100
AcDbLine
62
7
6
CONTINUOUS
10
86.8899190000
20
8.1690580000
11
85.2622840000
21
9.7966920000
0
LINE
5
46B
100
AcDbEntity
8
05
100
AcDbLine
62
7
6
CONTINUOUS
10
84.6268660000
20
10.4321110000
11
84.3659050000
21
10.6930720000
0
LINE
5
46C
100
AcDbEntity
8
05
100
AcDbLine
62
7
6
CONTINUOUS
10
86.5309040000
20
8.2098750000
11
85.2045430000
21
9.5362360000
0
LINE
5
46D
100
AcDbEntity
8
05
100
AcDbLine
62
7
6
CONTINUOUS
10
84.4876850000
20
10.2530940000
11
84.0477070000
21
10.6930720000
0
LINE
5
46E
100
AcDbEntity
8
05
100
AcDbLine
62
7
6
CONTINUOUS
10
86.1408320000
20
8.2817490000
11
85.1468010000
21
9.2757800000
0
LINE
5
46F
100
AcDbEntity
8
05
100
AcDbLine
62
7
6
CONTINUOUS
10
84.1694870000
20
10.2530940000
11
83.7295090000
21
10.6930720000
0
LINE
5
470
100
AcDbEntity
8
05
100
AcDbLine
62
7
6
CONTINUOUS
10
85.6959590000
20
8.4084240000
11
85.0890590000
21
9.0153240000
0
LINE
5
471
100
AcDbEntity
8
05
100
AcDbLine
62
7
6
CONTINUOUS
10
83.8512890000
20
10.2530940000
11
83.4113110000
21
10.6930720000
0
LINE
5
472
100
AcDbEntity
8
05
100
AcDbLine
62
7
6
CONTINUOUS
10
84.2052730000
20
9.5809110000
11
84.1901830000
21
9.5960010000
0
LINE
5
473
100
AcDbEntity
8
05
100
AcDbLine
62
7
6
CONTINUOUS
10
83.5330910000
20
10.2530940000
11
83.0931130000
21
10.6930720000
0
LINE
5
474
100
AcDbEntity
8
05
100
AcDbLine
62
7
6
CONTINUOUS
10
84.1475320000
20
9.3204550000
11
83.8719850000
21
9.5960010000
0
LINE
5
475
100
AcDbEntity
8
05
100
AcDbLine
62
7
6
CONTINUOUS
10
83.2148930000
20
10.2530940000
11
82.7749150000
21
10.6930720000
0
LINE
5
476
100
AcDbEntity
8
05
100
AcDbLine
62
7
6
CONTINUOUS
10
83.8437660000
20
9.3060230000
11
83.5537870000
21
9.5960010000
0
LINE
5
477
100
AcDbEntity
8
05
100
AcDbLine
62
7
6
CONTINUOUS
10
82.8966950000
20
10.2530940000
11
82.4567170000
21
10.6930720000
0
LINE
5
478
100
AcDbEntity
8
05
100
AcDbLine
62
7
6
CONTINUOUS
10
84.2226740000
20
8.6089170000
11
84.1826600000
21
8.6489310000
0
LINE
5
479
100
AcDbEntity
8
05
100
AcDbLine
62
7
6
CONTINUOUS
10
82.5784970000
20
10.2530940000
11
82.1385190000
21
10.6930720000
0
LINE
5
47A
100
AcDbEntity
8
05
100
AcDbLine
62
7
6
CONTINUOUS
10
83.5255680000
20
9.3060230000
11
83.2355890000
21
9.5960010000
0
LINE
5
47B
100
AcDbEntity
8
05
100
AcDbLine
62
7
6
CONTINUOUS
10
84.1649320000
20
8.3484610000
11
83.8644620000
21
8.6489310000
0
LINE
5
47C
100
AcDbEntity
8
05
100
AcDbLine
62
7
6
CONTINUOUS
10
82.2602990000
20
10.2530940000
11
81.8203210000
21
10.6930720000
0
LINE
5
47D
100
AcDbEntity
8
05
100
AcDbLine
62
7
6
CONTINUOUS
10
83.2073700000
20
9.3060230000
11
82.9173910000
21
9.5960010000
0
LINE
5
47E
100
AcDbEntity
8
05
100
AcDbLine
62
7
6
CONTINUOUS
10
83.9862420000
20
8.2089520000
11
83.5462640000
21
8.6489310000
0
LINE
5
47F
100
AcDbEntity
8
05
100
AcDbLine
62
7
6
CONTINUOUS
10
81.9421010000
20
10.2530940000
11
81.5021230000
21
10.6930720000
0
LINE
5
480
100
AcDbEntity
8
05
100
AcDbLine
62
7
6
CONTINUOUS
10
82.8891720000
20
9.3060230000
11
82.5991930000
21
9.5960010000
0
LINE
5
481
100
AcDbEntity
8
05
100
AcDbLine
62
7
6
CONTINUOUS
10
83.6680440000
20
8.2089520000
11
83.2280660000
21
8.6489310000
0
LINE
5
482
100
AcDbEntity
8
05
100
AcDbLine
62
7
6
CONTINUOUS
10
81.6348580000
20
10.2421380000
11
81.1839240000
21
10.6930720000
0
LINE
5
483
100
AcDbEntity
8
05
100
AcDbLine
62
7
6
CONTINUOUS
10
82.5709740000
20
9.3060230000
11
82.2809950000
21
9.5960010000
0
LINE
5
484
100
AcDbEntity
8
05
100
AcDbLine
62
7
6
CONTINUOUS
10
83.3498460000
20
8.2089520000
11
82.9098680000
21
8.6489310000
0
LINE
5
485
100
AcDbEntity
8
05
100
AcDbLine
62
7
6
CONTINUOUS
10
81.5771160000
20
9.9816820000
11
80.8657260000
21
10.6930720000
0
LINE
5
486
100
AcDbEntity
8
05
100
AcDbLine
62
7
6
CONTINUOUS
10
82.2527750000
20
9.3060230000
11
81.9627970000
21
9.5960010000
0
LINE
5
487
100
AcDbEntity
8
05
100
AcDbLine
62
7
6
CONTINUOUS
10
83.0316480000
20
8.2089520000
11
82.5916700000
21
8.6489310000
0
LINE
5
488
100
AcDbEntity
8
05
100
AcDbLine
62
7
6
CONTINUOUS
10
81.5193740000
20
9.7212260000
11
80.5475280000
21
10.6930720000
0
LINE
5
489
100
AcDbEntity
8
05
100
AcDbLine
62
7
6
CONTINUOUS
10
81.9345770000
20
9.3060230000
11
81.6445990000
21
9.5960010000
0
LINE
5
48A
100
AcDbEntity
8
05
100
AcDbLine
62
7
6
CONTINUOUS
10
82.7134500000
20
8.2089520000
11
82.2734720000
21
8.6489310000
0
LINE
5
48B
100
AcDbEntity
8
05
100
AcDbLine
62
7
6
CONTINUOUS
10
81.6163790000
20
9.3060230000
11
80.2293300000
21
10.6930720000
0
LINE
5
48C
100
AcDbEntity
8
05
100
AcDbLine
62
7
6
CONTINUOUS
10
82.3952520000
20
8.2089520000
11
81.9552740000
21
8.6489310000
0
LINE
5
48D
100
AcDbEntity
8
05
100
AcDbLine
62
7
6
CONTINUOUS
10
81.4038910000
20
9.2003130000
11
80.0059700000
21
10.5982340000
0
LINE
5
48E
100
AcDbEntity
8
05
100
AcDbLine
62
7
6
CONTINUOUS
10
82.0770540000
20
8.2089520000
11
81.6370750000
21
8.6489310000
0
LINE
5
48F
100
AcDbEntity
8
05
100
AcDbLine
62
7
6
CONTINUOUS
10
81.3461490000
20
8.9398570000
11
79.9482280000
21
10.3377780000
0
LINE
5
490
100
AcDbEntity
8
05
100
AcDbLine
62
7
6
CONTINUOUS
10
81.7588560000
20
8.2089520000
11
81.3188770000
21
8.6489310000
0
LINE
5
491
100
AcDbEntity
8
05
100
AcDbLine
62
7
6
CONTINUOUS
10
81.2884070000
20
8.6794010000
11
79.8904870000
21
10.0773220000
0
LINE
5
492
100
AcDbEntity
8
05
100
AcDbLine
62
7
6
CONTINUOUS
10
81.4406580000
20
8.2089520000
11
79.8327450000
21
9.8168650000
0
LINE
5
493
100
AcDbEntity
8
05
100
AcDbLine
62
7
6
CONTINUOUS
10
79.1337840000
20
10.5158260000
11
78.9565380000
21
10.6930720000
0
LINE
5
494
100
AcDbEntity
8
05
100
AcDbLine
62
7
6
CONTINUOUS
10
81.1224600000
20
8.2089520000
11
79.7750030000
21
9.5564090000
0
LINE
5
495
100
AcDbEntity
8
05
100
AcDbLine
62
7
6
CONTINUOUS
10
79.0760430000
20
10.2553690000
11
78.6383400000
21
10.6930720000
0
LINE
5
496
100
AcDbEntity
8
05
100
AcDbLine
62
7
6
CONTINUOUS
10
80.8042620000
20
8.2089520000
11
79.7172610000
21
9.2959530000
0
LINE
5
497
100
AcDbEntity
8
05
100
AcDbLine
62
7
6
CONTINUOUS
10
79.0183010000
20
9.9949130000
11
78.3201420000
21
10.6930720000
0
LINE
5
498
100
AcDbEntity
8
05
100
AcDbLine
62
7
6
CONTINUOUS
10
80.4860640000
20
8.2089520000
11
79.6595200000
21
9.0354960000
0
LINE
5
499
100
AcDbEntity
8
05
100
AcDbLine
62
7
6
CONTINUOUS
10
78.9605590000
20
9.7344570000
11
78.0019440000
21
10.6930720000
0
LINE
5
49A
100
AcDbEntity
8
05
100
AcDbLine
62
7
6
CONTINUOUS
10
80.1678660000
20
8.2089520000
11
79.6017780000
21
8.7750400000
0
LINE
5
49B
100
AcDbEntity
8
05
100
AcDbLine
62
7
6
CONTINUOUS
10
78.9028170000
20
9.4740000000
11
77.6837460000
21
10.6930720000
0
LINE
5
49C
100
AcDbEntity
8
05
100
AcDbLine
62
7
6
CONTINUOUS
10
79.8496680000
20
8.2089520000
11
79.5440360000
21
8.5145840000
0
LINE
5
49D
100
AcDbEntity
8
05
100
AcDbLine
62
7
6
CONTINUOUS
10
78.8450760000
20
9.2135440000
11
77.4471550000
21
10.6114650000
0
LINE
5
49E
100
AcDbEntity
8
05
100
AcDbLine
62
7
6
CONTINUOUS
10
79.5314700000
20
8.2089520000
11
79.4862940000
21
8.2541280000
0
LINE
5
49F
100
AcDbEntity
8
05
100
AcDbLine
62
7
6
CONTINUOUS
10
78.7873340000
20
8.9530880000
11
77.3894130000
21
10.3510090000
0
LINE
5
4A0
100
AcDbEntity
8
05
100
AcDbLine
62
7
6
CONTINUOUS
10
78.7295920000
20
8.6926320000
11
77.3316710000
21
10.0905520000
0
LINE
5
4A1
100
AcDbEntity
8
05
100
AcDbLine
62
7
6
CONTINUOUS
10
78.6718500000
20
8.4321750000
11
77.2739300000
21
9.8300960000
0
LINE
5
4A2
100
AcDbEntity
8
05
100
AcDbLine
62
7
6
CONTINUOUS
10
78.5768750000
20
8.2089520000
11
77.0733040000
21
9.7125240000
0
LINE
5
4A3
100
AcDbEntity
8
05
100
AcDbLine
62
7
6
CONTINUOUS
10
78.2586770000
20
8.2089520000
11
75.9995820000
21
10.4680470000
0
LINE
5
4A4
100
AcDbEntity
8
05
100
AcDbLine
62
7
6
CONTINUOUS
10
77.9404790000
20
8.2089520000
11
75.4563600000
21
10.6930720000
0
LINE
5
4A5
100
AcDbEntity
8
05
100
AcDbLine
62
7
6
CONTINUOUS
10
77.6222810000
20
8.2089520000
11
75.1381610000
21
10.6930720000
0
LINE
5
4A6
100
AcDbEntity
8
05
100
AcDbLine
62
7
6
CONTINUOUS
10
77.3040830000
20
8.2089520000
11
74.8199630000
21
10.6930720000
0
LINE
5
4A7
100
AcDbEntity
8
05
100
AcDbLine
62
7
6
CONTINUOUS
10
76.9858850000
20
8.2089520000
11
74.5017650000
21
10.6930720000
0
LINE
5
4A8
100
AcDbEntity
8
05
100
AcDbLine
62
7
6
CONTINUOUS
10
76.5426650000
20
8.3339750000
11
74.1835670000
21
10.6930720000
0
LINE
5
4A9
100
AcDbEntity
8
05
100
AcDbLine
62
7
6
CONTINUOUS
10
75.0963650000
20
9.4620760000
11
73.8653690000
21
10.6930720000
0
LINE
5
4AA
100
AcDbEntity
8
05
100
AcDbLine
62
7
6
CONTINUOUS
10
75.0386240000
20
9.2016200000
11
73.6407030000
21
10.5995400000
0
LINE
5
4AB
100
AcDbEntity
8
05
100
AcDbLine
62
7
6
CONTINUOUS
10
74.9808820000
20
8.9411630000
11
73.5829610000
21
10.3390840000
0
LINE
5
4AC
100
AcDbEntity
8
05
100
AcDbLine
62
7
6
CONTINUOUS
10
74.9231400000
20
8.6807070000
11
73.5252190000
21
10.0786280000
0
LINE
5
4AD
100
AcDbEntity
8
05
100
AcDbLine
62
7
6
CONTINUOUS
10
74.8653980000
20
8.4202510000
11
73.4674780000
21
9.8181710000
0
LINE
5
4AE
100
AcDbEntity
8
05
100
AcDbLine
62
7
6
CONTINUOUS
10
74.7584990000
20
8.2089520000
11
73.4097360000
21
9.5577150000
0
LINE
5
4AF
100
AcDbEntity
8
05
100
AcDbLine
62
7
6
CONTINUOUS
10
74.4403010000
20
8.2089520000
11
73.3519940000
21
9.2972590000
0
LINE
5
4B0
100
AcDbEntity
8
05
100
AcDbLine
62
7
6
CONTINUOUS
10
74.1221030000
20
8.2089520000
11
73.2942520000
21
9.0368030000
0
LINE
5
4B1
100
AcDbEntity
8
05
100
AcDbLine
62
7
6
CONTINUOUS
10
73.8039050000
20
8.2089520000
11
73.2365110000
21
8.7763460000
0
LINE
5
4B2
100
AcDbEntity
8
05
100
AcDbLine
62
7
6
CONTINUOUS
10
73.4857070000
20
8.2089520000
11
73.1787690000
21
8.5158900000
0
LINE
5
4B3
100
AcDbEntity
8
05
100
AcDbLine
62
7
6
CONTINUOUS
10
73.1675080000
20
8.2089520000
11
73.1210270000
21
8.2554340000
0
LINE
5
4B4
100
AcDbEntity
8
05
100
AcDbLine
62
7
6
CONTINUOUS
10
100.2143430000
20
8.2089520000
11
99.6229950000
21
8.8003000000
0
LINE
5
4B5
100
AcDbEntity
8
05
100
AcDbLine
62
7
6
CONTINUOUS
10
98.2353860000
20
10.1879090000
11
97.7302230000
21
10.6930720000
0
LINE
5
4B6
100
AcDbEntity
8
05
100
AcDbLine
62
7
6
CONTINUOUS
10
99.2880550000
20
9.1352400000
11
98.9980770000
21
9.4252180000
0
LINE
5
4B7
100
AcDbEntity
8
05
100
AcDbLine
62
7
6
CONTINUOUS
10
100.5325410000
20
8.2089520000
11
99.3162750000
21
9.4252180000
0
LINE
5
4B8
100
AcDbEntity
8
05
100
AcDbLine
62
7
6
CONTINUOUS
10
98.4884000000
20
10.2530940000
11
98.0484210000
21
10.6930720000
0
LINE
5
4B9
100
AcDbEntity
8
05
100
AcDbLine
62
7
6
CONTINUOUS
10
100.8507390000
20
8.2089520000
11
99.5865410000
21
9.4731500000
0
LINE
5
4BA
100
AcDbEntity
8
05
100
AcDbLine
62
7
6
CONTINUOUS
10
98.8065980000
20
10.2530940000
11
98.3666190000
21
10.6930720000
0
LINE
5
4BB
100
AcDbEntity
8
05
100
AcDbLine
62
7
6
CONTINUOUS
10
101.1689370000
20
8.2089520000
11
99.7895650000
21
9.5883250000
0
LINE
5
4BC
100
AcDbEntity
8
05
100
AcDbLine
62
7
6
CONTINUOUS
10
99.1247960000
20
10.2530940000
11
98.6848170000
21
10.6930720000
0
LINE
5
4BD
100
AcDbEntity
8
05
100
AcDbLine
62
7
6
CONTINUOUS
10
101.3114220000
20
8.3846650000
11
99.9276840000
21
9.7684040000
0
LINE
5
4BE
100
AcDbEntity
8
05
100
AcDbLine
62
7
6
CONTINUOUS
10
99.4429940000
20
10.2530940000
11
99.0030150000
21
10.6930720000
0
LINE
5
4BF
100
AcDbEntity
8
05
100
AcDbLine
62
7
6
CONTINUOUS
10
101.3236390000
20
8.6906470000
11
99.9146710000
21
10.0996140000
0
LINE
5
4C0
100
AcDbEntity
8
05
100
AcDbLine
62
7
6
CONTINUOUS
10
99.7916150000
20
10.2226700000
11
99.3212130000
21
10.6930720000
0
LINE
5
4C1
100
AcDbEntity
8
05
100
AcDbLine
62
7
6
CONTINUOUS
10
101.3444350000
20
8.9880480000
11
99.6394110000
21
10.6930720000
0
LINE
5
4C2
100
AcDbEntity
8
05
100
AcDbLine
62
7
6
CONTINUOUS
10
102.4417290000
20
8.2089520000
11
102.1979220000
21
8.4527590000
0
LINE
5
4C3
100
AcDbEntity
8
05
100
AcDbLine
62
7
6
CONTINUOUS
10
101.2866150000
20
9.3640660000
11
99.9576100000
21
10.6930720000
0
LINE
5
4C4
100
AcDbEntity
8
05
100
AcDbLine
62
7
6
CONTINUOUS
10
102.7599270000
20
8.2089520000
11
102.2556640000
21
8.7132160000
0
LINE
5
4C5
100
AcDbEntity
8
05
100
AcDbLine
62
7
6
CONTINUOUS
10
101.4817000000
20
9.4871790000
11
100.2758080000
21
10.6930720000
0
LINE
5
4C6
100
AcDbEntity
8
05
100
AcDbLine
62
7
6
CONTINUOUS
10
103.0781250000
20
8.2089520000
11
102.3134060000
21
8.9736720000
0
LINE
5
4C7
100
AcDbEntity
8
05
100
AcDbLine
62
7
6
CONTINUOUS
10
101.6502860000
20
9.6367910000
11
100.5940060000
21
10.6930720000
0
LINE
5
4C8
100
AcDbEntity
8
05
100
AcDbLine
62
7
6
CONTINUOUS
10
103.3963230000
20
8.2089520000
11
102.3711480000
21
9.2341280000
0
LINE
5
4C9
100
AcDbEntity
8
05
100
AcDbLine
62
7
6
CONTINUOUS
10
101.7853460000
20
9.8199300000
11
100.9122040000
21
10.6930720000
0
LINE
5
4CA
100
AcDbEntity
8
05
100
AcDbLine
62
7
6
CONTINUOUS
10
103.7145210000
20
8.2089520000
11
102.4288890000
21
9.4945840000
0
LINE
5
4CB
100
AcDbEntity
8
05
100
AcDbLine
62
7
6
CONTINUOUS
10
101.8709020000
20
10.0525710000
11
101.2554280000
21
10.6680460000
0
LINE
5
4CC
100
AcDbEntity
8
05
100
AcDbLine
62
7
6
CONTINUOUS
10
103.8845520000
20
8.3571200000
11
102.4866310000
21
9.7550410000
0
LINE
5
4CD
100
AcDbEntity
8
05
100
AcDbLine
62
7
6
CONTINUOUS
10
103.9422940000
20
8.6175760000
11
102.5443730000
21
10.0154970000
0
LINE
5
4CE
100
AcDbEntity
8
05
100
AcDbLine
62
7
6
CONTINUOUS
10
104.0000350000
20
8.8780330000
11
102.6021150000
21
10.2759530000
0
LINE
5
4CF
100
AcDbEntity
8
05
100
AcDbLine
62
7
6
CONTINUOUS
10
104.9873140000
20
8.2089520000
11
104.8838210000
21
8.3124450000
0
LINE
5
4D0
100
AcDbEntity
8
05
100
AcDbLine
62
7
6
CONTINUOUS
10
104.0577770000
20
9.1384890000
11
102.6598560000
21
10.5364100000
0
LINE
5
4D1
100
AcDbEntity
8
05
100
AcDbLine
62
7
6
CONTINUOUS
10
105.3055120000
20
8.2089520000
11
104.9415630000
21
8.5729010000
0
LINE
5
4D2
100
AcDbEntity
8
05
100
AcDbLine
62
7
6
CONTINUOUS
10
104.1155190000
20
9.3989450000
11
102.8213920000
21
10.6930720000
0
LINE
5
4D3
100
AcDbEntity
8
05
100
AcDbLine
62
7
6
CONTINUOUS
10
105.6237100000
20
8.2089520000
11
104.9993050000
21
8.8333570000
0
LINE
5
4D4
100
AcDbEntity
8
05
100
AcDbLine
62
7
6
CONTINUOUS
10
104.1732610000
20
9.6594010000
11
103.1395900000
21
10.6930720000
0
LINE
5
4D5
100
AcDbEntity
8
05
100
AcDbLine
62
7
6
CONTINUOUS
10
105.9419080000
20
8.2089520000
11
105.0570460000
21
9.0938140000
0
LINE
5
4D6
100
AcDbEntity
8
05
100
AcDbLine
62
7
6
CONTINUOUS
10
104.2310020000
20
9.9198580000
11
103.4577880000
21
10.6930720000
0
LINE
5
4D7
100
AcDbEntity
8
05
100
AcDbLine
62
7
6
CONTINUOUS
10
106.2601060000
20
8.2089520000
11
105.1147880000
21
9.3542700000
0
LINE
5
4D8
100
AcDbEntity
8
05
100
AcDbLine
62
7
6
CONTINUOUS
10
104.2887440000
20
10.1803140000
11
103.7759860000
21
10.6930720000
0
LINE
5
4D9
100
AcDbEntity
8
05
100
AcDbLine
62
7
6
CONTINUOUS
10
106.5069090000
20
8.2803470000
11
105.1725300000
21
9.6147260000
0
LINE
5
4DA
100
AcDbEntity
8
05
100
AcDbLine
62
7
6
CONTINUOUS
10
104.3464860000
20
10.4407700000
11
104.0941840000
21
10.6930720000
0
LINE
5
4DB
100
AcDbEntity
8
05
100
AcDbLine
62
7
6
CONTINUOUS
10
106.5646510000
20
8.5408040000
11
105.2302720000
21
9.8751820000
0
LINE
5
4DC
100
AcDbEntity
8
05
100
AcDbLine
62
7
6
CONTINUOUS
10
106.6223920000
20
8.8012600000
11
105.2880140000
21
10.1356390000
0
LINE
5
4DD
100
AcDbEntity
8
05
100
AcDbLine
62
7
6
CONTINUOUS
10
106.8272750000
20
8.9145760000
11
105.3457550000
21
10.3960950000
0
LINE
5
4DE
100
AcDbEntity
8
05
100
AcDbLine
62
7
6
CONTINUOUS
10
107.0503950000
20
9.0096540000
11
105.4034970000
21
10.6565510000
0
LINE
5
4DF
100
AcDbEntity
8
05
100
AcDbLine
62
7
6
CONTINUOUS
10
107.2735140000
20
9.1047320000
11
105.6851740000
21
10.6930720000
0
LINE
5
4E0
100
AcDbEntity
8
05
100
AcDbLine
62
7
6
CONTINUOUS
10
108.4874920000
20
8.2089520000
11
106.0033720000
21
10.6930720000
0
LINE
5
4E1
100
AcDbEntity
8
05
100
AcDbLine
62
7
6
CONTINUOUS
10
108.8056900000
20
8.2089520000
11
107.0702760000
21
9.9443670000
0
LINE
5
4E2
100
AcDbEntity
8
05
100
AcDbLine
62
7
6
CONTINUOUS
10
106.9111010000
20
10.1035410000
11
106.3215710000
21
10.6930720000
0
LINE
5
4E3
100
AcDbEntity
8
05
100
AcDbLine
62
7
6
CONTINUOUS
10
109.1238880000
20
8.2089520000
11
107.2933950000
21
10.0394450000
0
LINE
5
4E4
100
AcDbEntity
8
05
100
AcDbLine
62
7
6
CONTINUOUS
10
106.9688430000
20
10.3639980000
11
106.6397690000
21
10.6930720000
0
LINE
5
4E5
100
AcDbEntity
8
05
100
AcDbLine
62
7
6
CONTINUOUS
10
109.4420860000
20
8.2089520000
11
107.5165150000
21
10.1345230000
0
LINE
5
4E6
100
AcDbEntity
8
05
100
AcDbLine
62
7
6
CONTINUOUS
10
107.0265850000
20
10.6244540000
11
106.9579670000
21
10.6930720000
0
LINE
5
4E7
100
AcDbEntity
8
05
100
AcDbLine
62
7
6
CONTINUOUS
10
109.7602840000
20
8.2089520000
11
107.7396350000
21
10.2296020000
0
LINE
5
4E8
100
AcDbEntity
8
05
100
AcDbLine
62
7
6
CONTINUOUS
10
110.0784820000
20
8.2089520000
11
107.9627550000
21
10.3246800000
0
LINE
5
4E9
100
AcDbEntity
8
05
100
AcDbLine
62
7
6
CONTINUOUS
10
110.3966810000
20
8.2089520000
11
108.1858740000
21
10.4197580000
0
LINE
5
4EA
100
AcDbEntity
8
05
100
AcDbLine
62
7
6
CONTINUOUS
10
109.0584720000
20
9.8653590000
11
108.4089940000
21
10.5148370000
0
LINE
5
4EB
100
AcDbEntity
8
05
100
AcDbLine
62
7
6
CONTINUOUS
10
109.2815920000
20
9.9604370000
11
108.6321140000
21
10.6099150000
0
LINE
5
4EC
100
AcDbEntity
8
05
100
AcDbLine
62
7
6
CONTINUOUS
10
109.5047120000
20
10.0555150000
11
108.8671550000
21
10.6930720000
0
LINE
5
4ED
100
AcDbEntity
8
05
100
AcDbLine
62
7
6
CONTINUOUS
10
109.7278310000
20
10.1505930000
11
109.1853530000
21
10.6930720000
0
LINE
5
4EE
100
AcDbEntity
8
05
100
AcDbLine
62
7
6
CONTINUOUS
10
109.9509510000
20
10.2456720000
11
109.5035510000
21
10.6930720000
0
LINE
5
4EF
100
AcDbEntity
8
05
100
AcDbLine
62
7
6
CONTINUOUS
10
110.1740710000
20
10.3407500000
11
109.8217490000
21
10.6930720000
0
LINE
5
4F0
100
AcDbEntity
8
05
100
AcDbLine
62
7
6
CONTINUOUS
10
110.3971910000
20
10.4358280000
11
110.1399470000
21
10.6930720000
0
LINE
5
4F1
100
AcDbEntity
8
05
100
AcDbLine
62
7
6
CONTINUOUS
10
110.6203100000
20
10.5309070000
11
110.4581450000
21
10.6930720000
0
LINE
5
4F2
100
AcDbEntity
8
05
100
AcDbLine
62
7
6
CONTINUOUS
10
110.8434300000
20
10.6259850000
11
110.7763430000
21
10.6930720000
0
LINE
5
4F3
100
AcDbEntity
8
05
100
AcDbLine
62
7
6
CONTINUOUS
10
113.5786610000
20
8.2089520000
11
113.5132270000
21
8.2743870000
0
LINE
5
4F4
100
AcDbEntity
8
05
100
AcDbLine
62
7
6
CONTINUOUS
10
113.8968590000
20
8.2089520000
11
113.6495970000
21
8.4562140000
0
LINE
5
4F5
100
AcDbEntity
8
05
100
AcDbLine
62
7
6
CONTINUOUS
10
114.2150570000
20
8.2089520000
11
113.7859680000
21
8.6380420000
0
LINE
5
4F6
100
AcDbEntity
8
05
100
AcDbLine
62
7
6
CONTINUOUS
10
114.5332550000
20
8.2089520000
11
113.9223380000
21
8.8198690000
0
LINE
5
4F7
100
AcDbEntity
8
05
100
AcDbLine
62
7
6
CONTINUOUS
10
114.8514530000
20
8.2089520000
11
114.0587090000
21
9.0016960000
0
LINE
5
4F8
100
AcDbEntity
8
05
100
AcDbLine
62
7
6
CONTINUOUS
10
115.1528720000
20
8.2257320000
11
114.1950800000
21
9.1835240000
0
LINE
5
4F9
100
AcDbEntity
8
05
100
AcDbLine
62
7
6
CONTINUOUS
10
115.2892420000
20
8.4075590000
11
114.3314500000
21
9.3653510000
0
LINE
5
4FA
100
AcDbEntity
8
05
100
AcDbLine
62
7
6
CONTINUOUS
10
115.4256130000
20
8.5893870000
11
114.4678210000
21
9.5471790000
0
LINE
5
4FB
100
AcDbEntity
8
05
100
AcDbLine
62
7
6
CONTINUOUS
10
115.6442140000
20
8.6889840000
11
114.6041910000
21
9.7290060000
0
LINE
5
4FC
100
AcDbEntity
8
05
100
AcDbLine
62
7
6
CONTINUOUS
10
115.9624120000
20
8.6889840000
11
114.7405620000
21
9.9108340000
0
LINE
5
4FD
100
AcDbEntity
8
05
100
AcDbLine
62
7
6
CONTINUOUS
10
116.2806100000
20
8.6889840000
11
115.9074220000
21
9.0621710000
0
LINE
5
4FE
100
AcDbEntity
8
05
100
AcDbLine
62
7
6
CONTINUOUS
10
115.8347250000
20
9.1348690000
11
114.8769330000
21
10.0926610000
0
LINE
5
4FF
100
AcDbEntity
8
05
100
AcDbLine
62
7
6
CONTINUOUS
10
116.5988080000
20
8.6889840000
11
116.2256200000
21
9.0621710000
0
LINE
5
500
100
AcDbEntity
8
05
100
AcDbLine
62
7
6
CONTINUOUS
10
115.9710950000
20
9.3166960000
11
115.0133030000
21
10.2744890000
0
LINE
5
501
100
AcDbEntity
8
05
100
AcDbLine
62
7
6
CONTINUOUS
10
117.3970380000
20
8.2089520000
11
117.3290410000
21
8.2769490000
0
LINE
5
502
100
AcDbEntity
8
05
100
AcDbLine
62
7
6
CONTINUOUS
10
116.1074660000
20
9.4985240000
11
115.1496740000
21
10.4563160000
0
LINE
5
503
100
AcDbEntity
8
05
100
AcDbLine
62
7
6
CONTINUOUS
10
116.9170060000
20
8.6889840000
11
116.5438180000
21
9.0621710000
0
LINE
5
504
100
AcDbEntity
8
05
100
AcDbLine
62
7
6
CONTINUOUS
10
117.7152360000
20
8.2089520000
11
116.8620160000
21
9.0621710000
0
LINE
5
505
100
AcDbEntity
8
05
100
AcDbLine
62
7
6
CONTINUOUS
10
116.2438370000
20
9.6803510000
11
115.2860440000
21
10.6381440000
0
LINE
5
506
100
AcDbEntity
8
05
100
AcDbLine
62
7
6
CONTINUOUS
10
118.0334340000
20
8.2089520000
11
117.1169090000
21
9.1254770000
0
LINE
5
507
100
AcDbEntity
8
05
100
AcDbLine
62
7
6
CONTINUOUS
10
116.3802070000
20
9.8621790000
11
115.5485850000
21
10.6938010000
0
LINE
5
508
100
AcDbEntity
8
05
100
AcDbLine
62
7
6
CONTINUOUS
10
118.3516320000
20
8.2089520000
11
117.0108430000
21
9.5497410000
0
LINE
5
509
100
AcDbEntity
8
05
100
AcDbLine
62
7
6
CONTINUOUS
10
116.5165780000
20
10.0440060000
11
115.8667830000
21
10.6938010000
0
LINE
5
50A
100
AcDbEntity
8
05
100
AcDbLine
62
7
6
CONTINUOUS
10
118.6698300000
20
8.2089520000
11
116.9047770000
21
9.9740050000
0
LINE
5
50B
100
AcDbEntity
8
05
100
AcDbLine
62
7
6
CONTINUOUS
10
116.6529480000
20
10.2258340000
11
116.1849810000
21
10.6938010000
0
LINE
5
50C
100
AcDbEntity
8
05
100
AcDbLine
62
7
6
CONTINUOUS
10
118.8755950000
20
8.3213850000
11
116.7987110000
21
10.3982690000
0
LINE
5
50D
100
AcDbEntity
8
05
100
AcDbLine
62
7
6
CONTINUOUS
10
116.7893190000
20
10.4076610000
11
116.5031790000
21
10.6938010000
0
LINE
5
50E
100
AcDbEntity
8
05
100
AcDbLine
62
7
6
CONTINUOUS
10
118.7695290000
20
8.7456490000
11
116.8213770000
21
10.6938010000
0
LINE
5
50F
100
AcDbEntity
8
05
100
AcDbLine
62
7
6
CONTINUOUS
10
118.6634630000
20
9.1699130000
11
117.1395760000
21
10.6938010000
0
LINE
5
510
100
AcDbEntity
8
05
100
AcDbLine
62
7
6
CONTINUOUS
10
119.7324920000
20
8.4190820000
11
119.6739720000
21
8.4776020000
0
LINE
5
511
100
AcDbEntity
8
05
100
AcDbLine
62
7
6
CONTINUOUS
10
118.5573970000
20
9.5941770000
11
117.4577740000
21
10.6938010000
0
LINE
5
512
100
AcDbEntity
8
05
100
AcDbLine
62
7
6
CONTINUOUS
10
120.1492980000
20
8.3204740000
11
119.6352250000
21
8.8345480000
0
LINE
5
513
100
AcDbEntity
8
05
100
AcDbLine
62
7
6
CONTINUOUS
10
118.4513310000
20
10.0184410000
11
117.7759720000
21
10.6938010000
0
LINE
5
514
100
AcDbEntity
8
05
100
AcDbLine
62
7
6
CONTINUOUS
10
120.5092820000
20
8.2786890000
11
119.6829220000
21
9.1050490000
0
LINE
5
515
100
AcDbEntity
8
05
100
AcDbLine
62
7
6
CONTINUOUS
10
118.3452650000
20
10.4427050000
11
118.0941700000
21
10.6938010000
0
LINE
5
516
100
AcDbEntity
8
05
100
AcDbLine
62
7
6
CONTINUOUS
10
120.8588570000
20
8.2473120000
11
119.7306180000
21
9.3755500000
0
LINE
5
517
100
AcDbEntity
8
05
100
AcDbLine
62
7
6
CONTINUOUS
10
121.1989400000
20
8.2254260000
11
119.7783150000
21
9.6460520000
0
LINE
5
518
100
AcDbEntity
8
05
100
AcDbLine
62
7
6
CONTINUOUS
10
121.5303060000
20
8.2122580000
11
119.8260120000
21
9.9165530000
0
LINE
5
519
100
AcDbEntity
8
05
100
AcDbLine
62
7
6
CONTINUOUS
10
121.8536160000
20
8.2071470000
11
119.8737080000
21
10.1870540000
0
LINE
5
51A
100
AcDbEntity
8
05
100
AcDbLine
62
7
6
CONTINUOUS
10
122.1694370000
20
8.2095230000
11
121.7175430000
21
8.6614180000
0
LINE
5
51B
100
AcDbEntity
8
05
100
AcDbLine
62
7
6
CONTINUOUS
10
121.2416420000
20
9.1373190000
11
119.9704990000
21
10.4084620000
0
LINE
5
51C
100
AcDbEntity
8
05
100
AcDbLine
62
7
6
CONTINUOUS
10
122.4782650000
20
8.2188940000
11
122.0476490000
21
8.6495100000
0
LINE
5
51D
100
AcDbEntity
8
05
100
AcDbLine
62
7
6
CONTINUOUS
10
121.2893390000
20
9.4078200000
11
120.1933910000
21
10.5037670000
0
LINE
5
51E
100
AcDbEntity
8
05
100
AcDbLine
62
7
6
CONTINUOUS
10
122.7805300000
20
8.2348260000
11
122.3498670000
21
8.6654900000
0
LINE
5
51F
100
AcDbEntity
8
05
100
AcDbLine
62
7
6
CONTINUOUS
10
121.3370350000
20
9.6783210000
11
120.4681720000
21
10.5471850000
0
LINE
5
520
100
AcDbEntity
8
05
100
AcDbLine
62
7
6
CONTINUOUS
10
123.1246030000
20
8.2089520000
11
122.6300090000
21
8.7035460000
0
LINE
5
521
100
AcDbEntity
8
05
100
AcDbLine
62
7
6
CONTINUOUS
10
121.3847320000
20
9.9488230000
11
120.7480050000
21
10.5855500000
0
LINE
5
522
100
AcDbEntity
8
05
100
AcDbLine
62
7
6
CONTINUOUS
10
123.4428010000
20
8.2089520000
11
122.8555260000
21
8.7962270000
0
LINE
5
523
100
AcDbEntity
8
05
100
AcDbLine
62
7
6
CONTINUOUS
10
121.5029990000
20
10.1487530000
11
121.0331350000
21
10.6186170000
0
LINE
5
524
100
AcDbEntity
8
05
100
AcDbLine
62
7
6
CONTINUOUS
10
122.5731040000
20
9.0786490000
11
122.3801960000
21
9.2715570000
0
LINE
5
525
100
AcDbEntity
8
05
100
AcDbLine
62
7
6
CONTINUOUS
10
123.7609990000
20
8.2089520000
11
122.9559880000
21
9.0139630000
0
LINE
5
526
100
AcDbEntity
8
05
100
AcDbLine
62
7
6
CONTINUOUS
10
121.7450410000
20
10.2249100000
11
121.3238330000
21
10.6461180000
0
LINE
5
527
100
AcDbEntity
8
05
100
AcDbLine
62
7
6
CONTINUOUS
10
122.8913020000
20
9.0786490000
11
122.6685740000
21
9.3013760000
0
LINE
5
528
100
AcDbEntity
8
05
100
AcDbLine
62
7
6
CONTINUOUS
10
124.0791970000
20
8.2089520000
11
122.9867720000
21
9.3013760000
0
LINE
5
529
100
AcDbEntity
8
05
100
AcDbLine
62
7
6
CONTINUOUS
10
122.0342750000
20
10.2538740000
11
121.6204010000
21
10.6677480000
0
LINE
5
52A
100
AcDbEntity
8
05
100
AcDbLine
62
7
6
CONTINUOUS
10
124.3716180000
20
8.2347290000
11
123.3049710000
21
9.3013760000
0
LINE
5
52B
100
AcDbEntity
8
05
100
AcDbLine
62
7
6
CONTINUOUS
10
122.3477810000
20
10.2585660000
11
121.9231780000
21
10.6831690000
0
LINE
5
52C
100
AcDbEntity
8
05
100
AcDbLine
62
7
6
CONTINUOUS
10
124.4193150000
20
8.5052300000
11
123.6231690000
21
9.3013760000
0
LINE
5
52D
100
AcDbEntity
8
05
100
AcDbLine
62
7
6
CONTINUOUS
10
122.6928320000
20
10.2317130000
11
122.2325510000
21
10.6919940000
0
LINE
5
52E
100
AcDbEntity
8
05
100
AcDbLine
62
7
6
CONTINUOUS
10
124.4670110000
20
8.7757320000
11
123.9413670000
21
9.3013760000
0
LINE
5
52F
100
AcDbEntity
8
05
100
AcDbLine
62
7
6
CONTINUOUS
10
123.2787500000
20
9.9639930000
11
122.5489540000
21
10.6937890000
0
LINE
5
530
100
AcDbEntity
8
05
100
AcDbLine
62
7
6
CONTINUOUS
10
124.5147080000
20
9.0462330000
11
124.2595650000
21
9.3013760000
0
LINE
5
531
100
AcDbEntity
8
05
100
AcDbLine
62
7
6
CONTINUOUS
10
123.5969480000
20
9.9639930000
11
122.8728890000
21
10.6880520000
0
LINE
5
532
100
AcDbEntity
8
05
100
AcDbLine
62
7
6
CONTINUOUS
10
123.9151460000
20
9.9639930000
11
123.2049290000
21
10.6742100000
0
LINE
5
533
100
AcDbEntity
8
05
100
AcDbLine
62
7
6
CONTINUOUS
10
124.2333440000
20
9.9639930000
11
123.5457450000
21
10.6515930000
0
LINE
5
534
100
AcDbEntity
8
05
100
AcDbLine
62
7
6
CONTINUOUS
10
124.5515420000
20
9.9639930000
11
123.8961190000
21
10.6194160000
0
LINE
5
535
100
AcDbEntity
8
05
100
AcDbLine
62
7
6
CONTINUOUS
10
124.7054950000
20
10.1282390000
11
124.2569840000
21
10.5767500000
0
LINE
5
536
100
AcDbEntity
8
035
100
AcDbLine
62
3
6
CONTINUOUS
10
73.1107220000
20
8.2089520000
11
74.8185550000
21
8.2089520000
0
LINE
5
537
100
AcDbEntity
8
035
100
AcDbLine
62
3
6
CONTINUOUS
10
73.6614380000
20
10.6930720000
11
75.6797860000
21
10.6930720000
0
LINE
5
538
100
AcDbEntity
8
035
100
AcDbLine
62
3
6
CONTINUOUS
10
73.1107220000
20
8.2089520000
11
73.6614380000
21
10.6930720000
0
LINE
5
539
100
AcDbEntity
8
035
100
AcDbLine
62
3
6
CONTINUOUS
10
74.8185550000
20
8.2089520000
11
75.1283320000
21
9.6062700000
0
LINE
5
53A
100
AcDbEntity
8
035
100
AcDbLine
62
3
6
CONTINUOUS
10
78.6223630000
20
8.2089520000
11
79.1730790000
21
10.6930720000
0
LINE
5
53B
100
AcDbEntity
8
035
100
AcDbLine
62
3
6
CONTINUOUS
10
77.2243080000
20
9.6062700000
11
77.4652470000
21
10.6930720000
0
LINE
5
53C
100
AcDbEntity
8
035
100
AcDbLine
62
3
6
CONTINUOUS
10
75.1283320000
20
9.6062700000
11
76.6816440000
21
8.2089520000
0
LINE
5
53D
100
AcDbEntity
8
035
100
AcDbLine
62
3
6
CONTINUOUS
10
75.6797860000
20
10.6930720000
11
77.2243080000
21
9.6062700000
0
LINE
5
53E
100
AcDbEntity
8
035
100
AcDbLine
62
3
6
CONTINUOUS
10
77.4652470000
20
10.6930720000
11
79.1730790000
21
10.6930720000
0
LINE
5
53F
100
AcDbEntity
8
035
100
AcDbLine
62
3
6
CONTINUOUS
10
76.6816440000
20
8.2089520000
11
78.6223630000
21
8.2089520000
0
LINE
5
540
100
AcDbEntity
8
035
100
AcDbLine
62
3
6
CONTINUOUS
10
79.4762790000
20
8.2089520000
11
80.0269950000
21
10.6930720000
0
LINE
5
541
100
AcDbEntity
8
035
100
AcDbLine
62
3
6
CONTINUOUS
10
81.2816520000
20
8.6489310000
11
81.4273260000
21
9.3060230000
0
LINE
5
542
100
AcDbEntity
8
035
100
AcDbLine
62
3
6
CONTINUOUS
10
84.1443320000
20
9.3060230000
11
84.2086190000
21
9.5960010000
0
LINE
5
543
100
AcDbEntity
8
035
100
AcDbLine
62
3
6
CONTINUOUS
10
84.1340040000
20
8.2089520000
11
84.2315440000
21
8.6489310000
0
LINE
5
544
100
AcDbEntity
8
035
100
AcDbLine
62
3
6
CONTINUOUS
10
79.4762790000
20
8.2089520000
11
84.1340040000
21
8.2089520000
0
LINE
5
545
100
AcDbEntity
8
035
100
AcDbLine
62
3
6
CONTINUOUS
10
80.0269950000
20
10.6930720000
11
84.6847200000
21
10.6930720000
0
LINE
5
546
100
AcDbEntity
8
035
100
AcDbLine
62
3
6
CONTINUOUS
10
81.4916130000
20
9.5960010000
11
81.6372870000
21
10.2530940000
0
LINE
5
547
100
AcDbEntity
8
035
100
AcDbLine
62
3
6
CONTINUOUS
10
84.5871790000
20
10.2530940000
11
84.6847200000
21
10.6930720000
0
LINE
5
548
100
AcDbEntity
8
035
100
AcDbLine
62
3
6
CONTINUOUS
10
85.0785120000
20
8.9677470000
11
85.4610070000
21
10.6930720000
0
LINE
5
549
100
AcDbEntity
8
035
100
AcDbLine
62
3
6
CONTINUOUS
10
86.8294160000
20
9.1814320000
11
87.1645380000
21
10.6930720000
0
LINE
5
54A
100
AcDbEntity
8
035
100
AcDbLine
62
3
6
CONTINUOUS
10
88.6970730000
20
9.1008870000
11
89.0500510000
21
10.6930720000
0
LINE
5
54B
100
AcDbEntity
8
035
100
AcDbLine
62
3
6
CONTINUOUS
10
90.3443260000
20
8.8470990000
11
90.7535680000
21
10.6930720000
0
LINE
5
54C
100
AcDbEntity
8
035
100
AcDbLine
62
3
6
CONTINUOUS
10
85.4610070000
20
10.6930720000
11
87.1645380000
21
10.6930720000
0
ARC
5
54D
100
AcDbEntity
8
035
100
AcDbCircle
62
3
6
CONTINUOUS
10
85.3565382511
20
8.9076074747
40
0.2844562511
100
AcDbArc
50
167.7944635173
51
179.9992899294
0
ARC
5
54E
100
AcDbEntity
8
035
100
AcDbCircle
62
3
6
CONTINUOUS
10
85.3565385413
20
8.9076113390
40
0.2844565413
100
AcDbArc
50
180.0000682898
51
234.6229224813
0
ARC
5
54F
100
AcDbEntity
8
035
100
AcDbCircle
62
3
6
CONTINUOUS
10
86.4662366591
20
10.4704306902
40
2.2011814138
100
AcDbArc
50
234.6229020698
51
253.6104761870
0
ARC
5
550
100
AcDbEntity
8
035
100
AcDbCircle
62
3
6
CONTINUOUS
10
87.2145988754
20
13.0148393689
40
4.8533619377
100
AcDbArc
50
253.6103910211
51
263.0540333551
0
ARC
5
551
100
AcDbEntity
8
035
100
AcDbCircle
62
3
6
CONTINUOUS
10
87.7114581813
20
17.0931766141
40
8.9618536141
100
AcDbArc
50
263.0539945915
51
270.0000116273
0
ARC
5
552
100
AcDbEntity
8
035
100
AcDbCircle
62
3
6
CONTINUOUS
10
87.7114613187
20
17.0931683755
40
8.9618453755
100
AcDbArc
50
269.9999915694
51
276.9460086052
0
ARC
5
553
100
AcDbEntity
8
035
100
AcDbCircle
62
3
6
CONTINUOUS
10
88.2083201246
20
13.0148393689
40
4.8533619377
100
AcDbArc
50
276.9459666449
51
286.3896089789
0
ARC
5
554
100
AcDbEntity
8
035
100
AcDbCircle
62
3
6
CONTINUOUS
10
88.9566823409
20
10.4704306902
40
2.2011814138
100
AcDbArc
50
286.3895238130
51
305.3770979302
0
ARC
5
555
100
AcDbEntity
8
035
100
AcDbCircle
62
3
6
CONTINUOUS
10
90.0663810713
20
8.9076107687
40
0.2844557216
100
AcDbArc
50
305.3770434265
51
347.7177170673
0
ARC
5
556
100
AcDbEntity
8
035
100
AcDbCircle
62
3
6
CONTINUOUS
10
87.0025297663
20
9.1404964568
40
0.1778877663
100
AcDbArc
50
179.9998250514
51
225.0422913416
0
ARC
5
557
100
AcDbEntity
8
035
100
AcDbCircle
62
3
6
CONTINUOUS
10
87.3618635061
20
9.5003622419
40
0.6864387665
100
AcDbArc
50
225.0423614170
51
247.5300128082
0
ARC
5
558
100
AcDbEntity
8
035
100
AcDbCircle
62
3
6
CONTINUOUS
10
87.6034918176
20
10.0845620937
40
1.3186362892
100
AcDbArc
50
247.5298821870
51
260.2785491795
0
ARC
5
559
100
AcDbEntity
8
035
100
AcDbCircle
62
3
6
CONTINUOUS
10
87.7630903846
20
11.0161117087
40
2.2637587087
100
AcDbArc
50
260.2783770082
51
269.9999902662
0
ARC
5
55A
100
AcDbEntity
8
035
100
AcDbCircle
62
3
6
CONTINUOUS
10
87.7630896154
20
11.0161117087
40
2.2637587087
100
AcDbArc
50
270.0000097338
51
279.7216229918
0
ARC
5
55B
100
AcDbEntity
8
035
100
AcDbCircle
62
3
6
CONTINUOUS
10
87.9226881824
20
10.0845620937
40
1.3186362892
100
AcDbArc
50
279.7214508205
51
292.4701178130
0
ARC
5
55C
100
AcDbEntity
8
035
100
AcDbCircle
62
3
6
CONTINUOUS
10
88.1643164939
20
9.5003622419
40
0.6864387665
100
AcDbArc
50
292.4699871918
51
314.9576385830
0
ARC
5
55D
100
AcDbEntity
8
035
100
AcDbCircle
62
3
6
CONTINUOUS
10
88.5236507293
20
9.1404979651
40
0.1778884834
100
AcDbArc
50
314.9572524508
51
347.1339192357
0
ARC
5
55E
100
AcDbEntity
8
035
100
AcDbCircle
62
3
6
CONTINUOUS
10
87.0025290776
20
9.1404969937
40
0.1778870776
100
AcDbArc
50
166.6959850486
51
179.9999979692
0
LINE
5
55F
100
AcDbEntity
8
035
100
AcDbLine
62
3
6
CONTINUOUS
10
89.0500510000
20
10.6930720000
11
90.7535680000
21
10.6930720000
0
LINE
5
560
100
AcDbEntity
8
035
100
AcDbLine
62
3
6
CONTINUOUS
10
91.0678550000
20
10.0720420000
11
91.2055340000
21
10.6930720000
0
LINE
5
561
100
AcDbEntity
8
035
100
AcDbLine
62
3
6
CONTINUOUS
10
92.2073930000
20
8.2089520000
11
92.6204300000
21
10.0720420000
0
LINE
5
562
100
AcDbEntity
8
035
100
AcDbLine
62
3
6
CONTINUOUS
10
93.9152250000
20
8.2089520000
11
94.3282620000
21
10.0720420000
0
LINE
5
563
100
AcDbEntity
8
035
100
AcDbLine
62
3
6
CONTINUOUS
10
95.9584660000
20
10.0720420000
11
96.0961450000
21
10.6930720000
0
LINE
5
564
100
AcDbEntity
8
035
100
AcDbLine
62
3
6
CONTINUOUS
10
91.0678550000
20
10.0720420000
11
92.6204300000
21
10.0720420000
0
LINE
5
565
100
AcDbEntity
8
035
100
AcDbLine
62
3
6
CONTINUOUS
10
92.2073930000
20
8.2089520000
11
93.9152250000
21
8.2089520000
0
LINE
5
566
100
AcDbEntity
8
035
100
AcDbLine
62
3
6
CONTINUOUS
10
91.2055340000
20
10.6930720000
11
96.0961450000
21
10.6930720000
0
LINE
5
567
100
AcDbEntity
8
035
100
AcDbLine
62
3
6
CONTINUOUS
10
94.3282620000
20
10.0720420000
11
95.9584660000
21
10.0720420000
0
LINE
5
568
100
AcDbEntity
8
035
100
AcDbLine
62
3
6
CONTINUOUS
10
96.0888300000
20
8.2089520000
11
96.6395460000
21
10.6930720000
0
LINE
5
569
100
AcDbEntity
8
035
100
AcDbLine
62
3
6
CONTINUOUS
10
97.7966620000
20
8.2089520000
11
98.0020150000
21
9.1352400000
0
LINE
5
56A
100
AcDbEntity
8
035
100
AcDbLine
62
3
6
CONTINUOUS
10
96.0888300000
20
8.2089520000
11
97.7966620000
21
8.2089520000
0
LINE
5
56B
100
AcDbEntity
8
035
100
AcDbLine
62
3
6
CONTINUOUS
10
96.6395460000
20
10.6930720000
11
100.9979220000
21
10.6930720000
0
LINE
5
56C
100
AcDbEntity
8
035
100
AcDbLine
62
3
6
CONTINUOUS
10
101.3081340000
20
8.4689140000
11
101.3485860000
21
9.0474050000
0
LINE
5
56D
100
AcDbEntity
8
035
100
AcDbLine
62
3
6
CONTINUOUS
10
99.5959630000
20
8.4068680000
11
99.6272290000
21
8.8619210000
0
LINE
5
56E
100
AcDbEntity
8
035
100
AcDbLine
62
3
6
CONTINUOUS
10
98.0663020000
20
9.4252180000
11
98.2498370000
21
10.2530940000
0
ARC
5
56F
100
AcDbEntity
8
035
100
AcDbCircle
62
3
6
CONTINUOUS
10
101.6953320000
20
8.4418380000
40
0.3881440000
100
AcDbArc
50
176.0000000000
51
216.8698980000
0
ARC
5
570
100
AcDbEntity
8
035
100
AcDbCircle
62
3
6
CONTINUOUS
10
99.9697530000
20
8.4119050000
40
0.3738240000
100
AcDbArc
50
180.7720050000
51
212.8818750000
0
LINE
5
571
100
AcDbEntity
8
035
100
AcDbLine
62
3
6
CONTINUOUS
10
99.6558180000
20
8.2089520000
11
101.3848170000
21
8.2089520000
0
ARC
5
572
100
AcDbEntity
8
035
100
AcDbCircle
62
3
6
CONTINUOUS
10
101.0645091256
20
9.0692414046
40
0.2849148980
100
AcDbArc
50
355.6044351018
51
14.9998321139
0
ARC
5
573
100
AcDbEntity
8
035
100
AcDbCircle
62
3
6
CONTINUOUS
10
101.0645115927
20
9.0692393407
40
0.2849130492
100
AcDbArc
50
15.0003614107
51
49.8062951149
0
ARC
5
574
100
AcDbEntity
8
035
100
AcDbCircle
62
3
6
CONTINUOUS
10
100.8802286242
20
8.8511285638
40
0.5704520544
100
AcDbArc
50
49.8058236467
51
55.6063554031
0
ARC
5
575
100
AcDbEntity
8
035
100
AcDbCircle
62
3
6
CONTINUOUS
10
100.3132482994
20
11.1994672129
40
2.0775325922
100
AcDbArc
50
295.3416402972
51
298.8636783469
0
ARC
5
576
100
AcDbEntity
8
035
100
AcDbCircle
62
3
6
CONTINUOUS
10
100.6415395293
20
10.6038639832
40
1.3974455839
100
AcDbArc
50
298.8639281557
51
315.7882926038
0
ARC
5
577
100
AcDbEntity
8
035
100
AcDbCircle
62
3
6
CONTINUOUS
10
100.9889757242
20
10.2658585190
40
0.9127192659
100
AcDbArc
50
315.7883093494
51
340.1939355680
0
ARC
5
578
100
AcDbEntity
8
035
100
AcDbCircle
62
3
6
CONTINUOUS
10
101.4188091494
20
10.1110581593
40
0.4558605079
100
AcDbArc
50
340.1938658204
51
14.9997995246
0
ARC
5
579
100
AcDbEntity
8
035
100
AcDbCircle
62
3
6
CONTINUOUS
10
101.4188087341
20
10.1110565785
40
0.4558613183
100
AcDbArc
50
14.9999779363
51
49.8059116405
0
ARC
5
57A
100
AcDbEntity
8
035
100
AcDbCircle
62
3
6
CONTINUOUS
10
101.1239631890
20
9.7620752320
40
0.9127222113
100
AcDbArc
50
49.8061438314
51
74.2117700500
0
ARC
5
57B
100
AcDbEntity
8
035
100
AcDbCircle
62
3
6
CONTINUOUS
10
100.9920781414
20
9.2956381767
40
1.3974460423
100
AcDbArc
50
74.2117641360
51
89.7603990413
0
LINE
5
57C
100
AcDbEntity
8
035
100
AcDbLine
62
3
6
CONTINUOUS
10
102.1438710000
20
8.2089520000
11
102.6945880000
21
10.6930720000
0
LINE
5
57D
100
AcDbEntity
8
035
100
AcDbLine
62
3
6
CONTINUOUS
10
103.8517040000
20
8.2089520000
11
104.4024200000
21
10.6930720000
0
LINE
5
57E
100
AcDbEntity
8
035
100
AcDbLine
62
3
6
CONTINUOUS
10
102.1438710000
20
8.2089520000
11
103.8517040000
21
8.2089520000
0
LINE
5
57F
100
AcDbEntity
8
035
100
AcDbLine
62
3
6
CONTINUOUS
10
102.6945880000
20
10.6930720000
11
104.4024200000
21
10.6930720000
0
LINE
5
580
100
AcDbEntity
8
035
100
AcDbLine
62
3
6
CONTINUOUS
10
104.8608770000
20
8.2089520000
11
105.4115940000
21
10.6930720000
0
LINE
5
581
100
AcDbEntity
8
035
100
AcDbLine
62
3
6
CONTINUOUS
10
106.4910810000
20
8.2089520000
11
106.6287600000
21
8.8299820000
0
LINE
5
582
100
AcDbEntity
8
035
100
AcDbLine
62
3
6
CONTINUOUS
10
105.4115940000
20
10.6930720000
11
107.0417970000
21
10.6930720000
0
LINE
5
583
100
AcDbEntity
8
035
100
AcDbLine
62
3
6
CONTINUOUS
10
104.8608770000
20
8.2089520000
11
106.4910810000
21
8.2089520000
0
LINE
5
584
100
AcDbEntity
8
035
100
AcDbLine
62
3
6
CONTINUOUS
10
106.6287600000
20
8.8299820000
11
107.3574440000
21
9.1404970000
0
LINE
5
585
100
AcDbEntity
8
035
100
AcDbLine
62
3
6
CONTINUOUS
10
106.8555250000
20
9.8528550000
11
108.8272580000
21
10.6930720000
0
LINE
5
586
100
AcDbEntity
8
035
100
AcDbLine
62
3
6
CONTINUOUS
10
108.8272580000
20
10.6930720000
11
111.0008630000
21
10.6930720000
0
LINE
5
587
100
AcDbEntity
8
035
100
AcDbLine
62
3
6
CONTINUOUS
10
107.3574440000
20
9.1404970000
11
108.2765420000
21
8.2089520000
0
LINE
5
588
100
AcDbEntity
8
035
100
AcDbLine
62
3
6
CONTINUOUS
10
108.9969820000
20
9.8391560000
11
110.6054040000
21
8.2089520000
0
LINE
5
589
100
AcDbEntity
8
035
100
AcDbLine
62
3
6
CONTINUOUS
10
108.9969820000
20
9.8391560000
11
111.0008630000
21
10.6930720000
0
LINE
5
58A
100
AcDbEntity
8
035
100
AcDbLine
62
3
6
CONTINUOUS
10
106.8555250000
20
9.8528550000
11
107.0417970000
21
10.6930720000
0
LINE
5
58B
100
AcDbEntity
8
035
100
AcDbLine
62
3
6
CONTINUOUS
10
108.2765420000
20
8.2089520000
11
110.6054040000
21
8.2089520000
0
LINE
5
58C
100
AcDbEntity
8
035
100
AcDbLine
62
3
6
CONTINUOUS
10
113.4641510000
20
8.2089520000
11
115.1402870000
21
8.2089520000
0
LINE
5
58D
100
AcDbEntity
8
035
100
AcDbLine
62
3
6
CONTINUOUS
10
115.3277870000
20
10.6938010000
11
118.2824910000
21
10.6938010000
0
LINE
5
58E
100
AcDbEntity
8
035
100
AcDbLine
62
3
6
CONTINUOUS
10
113.4641510000
20
8.2089520000
11
115.3277870000
21
10.6938010000
0
LINE
5
58F
100
AcDbEntity
8
035
100
AcDbLine
62
3
6
CONTINUOUS
10
118.2824910000
20
10.6938010000
11
118.9037030000
21
8.2089520000
0
LINE
5
590
100
AcDbEntity
8
035
100
AcDbLine
62
3
6
CONTINUOUS
10
115.5003110000
20
8.6889840000
11
117.2260320000
21
8.6889840000
0
LINE
5
591
100
AcDbEntity
8
035
100
AcDbLine
62
3
6
CONTINUOUS
10
115.7802020000
20
9.0621710000
11
117.1327350000
21
9.0621710000
0
LINE
5
592
100
AcDbEntity
8
035
100
AcDbLine
62
3
6
CONTINUOUS
10
119.6150190000
20
8.7199520000
11
119.8833800000
21
10.2419070000
0
LINE
5
593
100
AcDbEntity
8
035
100
AcDbLine
62
3
6
CONTINUOUS
10
124.3670730000
20
8.2089520000
11
124.5596970000
21
9.3013760000
0
LINE
5
594
100
AcDbEntity
8
035
100
AcDbLine
62
3
6
CONTINUOUS
10
121.2261250000
20
9.0493180000
11
121.3860210000
21
9.9561340000
0
LINE
5
595
100
AcDbEntity
8
035
100
AcDbLine
62
3
6
CONTINUOUS
10
122.8140420000
20
8.2089520000
11
122.8190480000
21
8.2373380000
0
LINE
5
596
100
AcDbEntity
8
035
100
AcDbLine
62
3
6
CONTINUOUS
10
122.3461810000
20
9.0786490000
11
122.3854540000
21
9.3013760000
0
LINE
5
597
100
AcDbEntity
8
035
100
AcDbLine
62
3
6
CONTINUOUS
10
122.3461810000
20
9.0786490000
11
122.9673930000
21
9.0786490000
0
ARC
5
598
100
AcDbEntity
8
035
100
AcDbCircle
62
3
6
CONTINUOUS
10
122.4684270000
20
-3.0031280000
40
13.6971530000
100
AcDbArc
50
81.6598950000
51
99.8027900000
0
ARC
5
599
100
AcDbEntity
8
035
100
AcDbCircle
62
3
6
CONTINUOUS
10
121.9084660000
20
21.9041900000
40
13.6971530000
100
AcDbArc
50
261.4614730000
51
273.8118150000
0
ARC
5
59A
100
AcDbEntity
8
035
100
AcDbCircle
62
3
6
CONTINUOUS
10
120.1892670000
20
10.1879710000
40
0.3106060000
100
AcDbArc
50
99.8027900000
51
170.0000000000
0
ARC
5
59B
100
AcDbEntity
8
035
100
AcDbCircle
62
3
6
CONTINUOUS
10
119.9209060000
20
8.6660160000
40
0.3106060000
100
AcDbArc
50
170.0000000000
51
261.4614730000
0
ARC
5
59C
100
AcDbEntity
8
035
100
AcDbCircle
62
3
6
CONTINUOUS
10
124.4101300000
20
10.2418500000
40
0.3106060000
100
AcDbArc
50
350.0000000000
51
81.6598950000
0
LINE
5
59D
100
AcDbEntity
8
035
100
AcDbLine
62
3
6
CONTINUOUS
10
123.1015710000
20
9.9639930000
11
124.6765340000
21
9.9639930000
0
LINE
5
59E
100
AcDbEntity
8
035
100
AcDbLine
62
3
6
CONTINUOUS
10
124.6765340000
20
9.9639930000
11
124.7160170000
21
10.1879140000
0
LINE
5
59F
100
AcDbEntity
8
035
100
AcDbLine
62
3
6
CONTINUOUS
10
122.9478530000
20
8.9678320000
11
122.9673930000
21
9.0786490000
0
ARC
5
5A0
100
AcDbEntity
8
035
100
AcDbCircle
62
3
6
CONTINUOUS
10
122.2442760000
20
6.6982740000
40
3.5617970000
100
AcDbArc
50
80.2083390000
51
99.7818250000
0
ARC
5
5A1
100
AcDbEntity
8
035
100
AcDbCircle
62
3
6
CONTINUOUS
10
122.0108590000
20
12.2111170000
40
3.5617970000
100
AcDbArc
50
261.5304680000
51
281.1930680000
0
ARC
5
5A2
100
AcDbEntity
8
035
100
AcDbCircle
62
3
6
CONTINUOUS
10
121.6919080000
20
9.9021980000
40
0.3106060000
100
AcDbArc
50
99.7818250000
51
170.0000000000
0
ARC
5
5A3
100
AcDbEntity
8
035
100
AcDbCircle
62
3
6
CONTINUOUS
10
122.7971930000
20
9.9021030000
40
0.3106060000
100
AcDbArc
50
11.4934250000
51
80.2083390000
0
ARC
5
5A4
100
AcDbEntity
8
035
100
AcDbCircle
62
3
6
CONTINUOUS
10
121.5320120000
20
8.9953820000
40
0.3106060000
100
AcDbArc
50
170.0000000000
51
261.5304680000
0
ARC
5
5A5
100
AcDbEntity
8
035
100
AcDbCircle
62
3
6
CONTINUOUS
10
122.6419660000
20
9.0217680000
40
0.3106060000
100
AcDbArc
50
281.1930680000
51
350.0000000000
0
LINE
5
5A6
100
AcDbEntity
8
035
100
AcDbLine
62
3
6
CONTINUOUS
10
122.8140420000
20
8.2089520000
11
124.3670730000
21
8.2089520000
0
LINE
5
5A7
100
AcDbEntity
8
035
100
AcDbLine
62
3
6
CONTINUOUS
10
117.3460400000
20
8.2089520000
11
118.9037030000
21
8.2089520000
0
LINE
5
5A8
100
AcDbEntity
8
035
100
AcDbLine
62
3
6
CONTINUOUS
10
81.6372870000
20
10.2530940000
11
84.5871790000
21
10.2530940000
0
LINE
5
5A9
100
AcDbEntity
8
035
100
AcDbLine
62
3
6
CONTINUOUS
10
81.4916130000
20
9.5960010000
11
84.2086190000
21
9.5960010000
0
LINE
5
5AA
100
AcDbEntity
8
035
100
AcDbLine
62
3
6
CONTINUOUS
10
81.4273260000
20
9.3060230000
11
84.1443320000
21
9.3060230000
0
LINE
5
5AB
100
AcDbEntity
8
035
100
AcDbLine
62
3
6
CONTINUOUS
10
81.2816520000
20
8.6489310000
11
84.2315440000
21
8.6489310000
0
LINE
5
5AC
100
AcDbEntity
8
035
100
AcDbLine
62
3
6
CONTINUOUS
10
98.2498370000
20
10.2530940000
11
99.6563970000
21
10.2530940000
0
LINE
5
5AD
100
AcDbEntity
8
035
100
AcDbLine
62
3
6
CONTINUOUS
10
98.0663020000
20
9.4252180000
11
99.4266270000
21
9.4252180000
0
LINE
5
5AE
100
AcDbEntity
8
035
100
AcDbLine
62
3
6
CONTINUOUS
10
98.0020150000
20
9.1352400000
11
99.4509000000
21
9.1352400000
0
LINE
5
5AF
100
AcDbEntity
8
035
100
AcDbLine
62
3
6
CONTINUOUS
10
99.6563970000
20
10.2530940000
11
99.7674140000
21
10.2349300000
0
LINE
5
5B0
100
AcDbEntity
8
035
100
AcDbLine
62
3
6
CONTINUOUS
10
99.7674140000
20
10.2349300000
11
99.8636110000
21
10.1861990000
0
LINE
5
5B1
100
AcDbEntity
8
035
100
AcDbLine
62
3
6
CONTINUOUS
10
99.8636110000
20
10.1861990000
11
99.9097870000
21
10.1118220000
0
LINE
5
5B2
100
AcDbEntity
8
035
100
AcDbLine
62
3
6
CONTINUOUS
10
99.9097870000
20
10.1118220000
11
99.9456990000
21
10.0220570000
0
LINE
5
5B3
100
AcDbEntity
8
035
100
AcDbLine
62
3
6
CONTINUOUS
10
99.9456990000
20
10.0220570000
11
99.9469830000
21
9.9246000000
0
LINE
5
5B4
100
AcDbEntity
8
035
100
AcDbLine
62
3
6
CONTINUOUS
10
99.9469830000
20
9.9246000000
11
99.9367220000
21
9.7835390000
0
LINE
5
5B5
100
AcDbEntity
8
035
100
AcDbLine
62
3
6
CONTINUOUS
10
99.9367220000
20
9.7835390000
11
99.8854140000
21
9.6976240000
0
LINE
5
5B6
100
AcDbEntity
8
035
100
AcDbLine
62
3
6
CONTINUOUS
10
99.8854140000
20
9.6976240000
11
99.7943500000
21
9.5911860000
0
LINE
5
5B7
100
AcDbEntity
8
035
100
AcDbLine
62
3
6
CONTINUOUS
10
99.7943500000
20
9.5911860000
11
99.6571060000
21
9.5091160000
0
LINE
5
5B8
100
AcDbEntity
8
035
100
AcDbLine
62
3
6
CONTINUOUS
10
99.6571060000
20
9.5091160000
11
99.5262760000
21
9.4424340000
0
LINE
5
5B9
100
AcDbEntity
8
035
100
AcDbLine
62
3
6
CONTINUOUS
10
99.5262760000
20
9.4424340000
11
99.4266270000
21
9.4252180000
0
LINE
5
5BA
100
AcDbEntity
8
035
100
AcDbLine
62
3
6
CONTINUOUS
10
99.4509000000
20
9.1352400000
11
99.5337810000
21
9.1235790000
0
LINE
5
5BB
100
AcDbEntity
8
035
100
AcDbLine
62
3
6
CONTINUOUS
10
99.5337810000
20
9.1235790000
11
99.5869810000
21
9.0899330000
0
LINE
5
5BC
100
AcDbEntity
8
035
100
AcDbLine
62
3
6
CONTINUOUS
10
99.5869810000
20
9.0899330000
11
99.6195510000
21
9.0367450000
0
LINE
5
5BD
100
AcDbEntity
8
035
100
AcDbLine
62
3
6
CONTINUOUS
10
99.6195510000
20
9.0367450000
11
99.6347510000
21
8.9727040000
0
LINE
5
5BE
100
AcDbEntity
8
035
100
AcDbLine
62
3
6
CONTINUOUS
10
99.6347510000
20
8.9727040000
11
99.6272290000
21
8.8619210000
0
LINE
5
5BF
100
AcDbEntity
8
035
100
AcDbLine
62
3
6
CONTINUOUS
10
116.7946020000
20
10.4147050000
11
117.1327350000
21
9.0621710000
0
LINE
5
5C0
100
AcDbEntity
8
035
100
AcDbLine
62
3
6
CONTINUOUS
10
115.7802020000
20
9.0621710000
11
116.7946020000
21
10.4147050000
0
LINE
5
5C1
100
AcDbEntity
8
035
100
AcDbLine
62
3
6
CONTINUOUS
10
117.2260320000
20
8.6889840000
11
117.3460400000
21
8.2089520000
0
LINE
5
5C2
100
AcDbEntity
8
035
100
AcDbLine
62
3
6
CONTINUOUS
10
115.1402870000
20
8.2089520000
11
115.5003110000
21
8.6889840000
0
LINE
5
5C3
100
AcDbEntity
8
035
100
AcDbLine
62
3
6
CONTINUOUS
10
122.3854540000
20
9.3013760000
11
124.5596970000
21
9.3013760000
0
LINE
5
5C4
100
AcDbEntity
8
05
100
AcDbLine
62
3
6
CONTINUOUS
10
162.8932280000
20
200.6439780000
11
162.4557840000
21
195.6439780000
0
LINE
5
5C5
100
AcDbEntity
8
05
100
AcDbLine
62
3
6
CONTINUOUS
10
162.8932280000
20
195.6439780000
11
162.4557840000
21
190.6439780000
0
LINE
5
5C6
100
AcDbEntity
8
07
100
AcDbLine
62
3
6
CONTINUOUS
10
165.6245380000
20
207.2495300000
11
162.9197960000
21
222.5888870000
0
LINE
5
5C7
100
AcDbEntity
8
07
100
AcDbLine
62
3
6
CONTINUOUS
10
166.2054630000
20
219.3372340000
11
166.3087150000
21
218.7516660000
0
ARC
5
5C8
100
AcDbEntity
8
07
100
AcDbCircle
62
3
6
CONTINUOUS
10
167.0818790000
20
207.4563070000
40
1.2000000000
100
AcDbArc
50
210.9509330000
51
10.0000000000
0
ARC
5
5C9
100
AcDbEntity
8
07
100
AcDbCircle
62
3
6
CONTINUOUS
10
165.0303620000
20
206.2108040000
40
1.2000000000
100
AcDbArc
50
31.2625030000
51
138.2961730000
0
ARC
5
5CA
100
AcDbEntity
8
07
100
AcDbCircle
62
3
6
CONTINUOUS
10
154.0226310000
20
246.7426410000
40
41.0000000000
100
AcDbArc
50
281.8005810000
51
284.2717290000
0
ARC
5
5CB
100
AcDbEntity
8
07
100
AcDbCircle
62
3
6
CONTINUOUS
10
168.2050020000
20
213.7560580000
40
1.6000000000
100
AcDbArc
50
138.6821870000
51
241.3178130000
0
LINE
5
5CC
100
AcDbEntity
8
07
100
AcDbLine
62
3
6
CONTINUOUS
10
167.4370800000
20
212.3523860000
11
167.6979000000
21
210.8732040000
0
ARC
5
5CD
100
AcDbEntity
8
07
100
AcDbCircle
62
3
6
CONTINUOUS
10
168.8995940000
20
209.8168270000
40
1.6000000000
100
AcDbArc
50
138.6821870000
51
241.3178130000
0
LINE
5
5CE
100
AcDbEntity
8
07
100
AcDbLine
62
3
6
CONTINUOUS
10
168.1316730000
20
208.4131550000
11
168.2636480000
21
207.6646850000
0
ARC
5
5CF
100
AcDbEntity
8
07
100
AcDbCircle
62
3
6
CONTINUOUS
10
167.5104090000
20
217.6952890000
40
1.6000000000
100
AcDbArc
50
138.6821870000
51
241.3178130000
0
LINE
5
5D0
100
AcDbEntity
8
07
100
AcDbLine
62
3
6
CONTINUOUS
10
166.7424880000
20
216.2916170000
11
167.0033070000
21
214.8124350000
0
LINE
5
5D1
100
AcDbEntity
8
07
100
AcDbLine
62
3
6
CONTINUOUS
10
161.8226310000
20
229.6426410000
11
159.6432280000
21
233.4174780000
0
ARC
5
5D2
100
AcDbEntity
8
07
100
AcDbCircle
62
3
6
CONTINUOUS
10
162.2662320000
20
218.6426410000
40
4.0000000000
100
AcDbArc
50
10.0000000000
51
81.1480640000
0
ARC
5
5D3
100
AcDbEntity
8
05
100
AcDbCircle
62
3
6
CONTINUOUS
10
161.8932280000
20
222.4439780000
40
1.0000000000
100
AcDbArc
50
8.6860920000
51
90.0000000000
0
LINE
5
5D4
100
AcDbEntity
8
07
100
AcDbLine
62
3
6
CONTINUOUS
10
159.6432280000
20
228.8426410000
11
161.8226310000
21
228.8426410000
0
LINE
5
5D5
100
AcDbEntity
8
07
100
AcDbLine
62
3
6
CONTINUOUS
10
161.8226310000
20
229.6426410000
11
161.8226310000
21
228.8426410000
0
ARC
5
5D6
100
AcDbEntity
8
07
100
AcDbCircle
62
3
6
CONTINUOUS
10
153.3356980000
20
237.7007040000
40
7.0000000000
100
AcDbArc
50
334.2998200000
51
25.7001800000
0
ARC
5
5D7
100
AcDbEntity
8
035
100
AcDbCircle
62
3
6
CONTINUOUS
10
67.2761770000
20
240.3241650000
40
1.0000000000
100
AcDbArc
50
0.0000000000
51
90.0000000000
0
ARC
5
5D8
100
AcDbEntity
8
035
100
AcDbCircle
62
3
6
CONTINUOUS
10
63.6761770000
20
240.3241650000
40
1.0000000000
100
AcDbArc
50
90.0000000000
51
180.0000000000
0
LINE
5
5D9
100
AcDbEntity
8
05
100
AcDbLine
62
3
6
CONTINUOUS
10
46.4761780000
20
200.6439780000
11
46.9136210000
21
195.6439780000
0
LINE
5
5DA
100
AcDbEntity
8
05
100
AcDbLine
62
3
6
CONTINUOUS
10
124.8932280000
20
200.6439780000
11
125.3306710000
21
195.6439780000
0
LINE
5
5DB
100
AcDbEntity
8
05
100
AcDbLine
62
3
6
CONTINUOUS
10
124.8932280000
20
195.6439780000
11
125.3306710000
21
190.6439780000
0
LINE
5
5DC
100
AcDbEntity
8
05
100
AcDbLine
62
3
6
CONTINUOUS
10
46.4761780000
20
195.6439780000
11
46.9136210000
21
190.6439780000
0
LINE
5
5DD
100
AcDbEntity
8
05
100
AcDbLine
62
3
6
CONTINUOUS
10
84.4761770000
20
200.6439780000
11
84.0387340000
21
195.6439780000
0
LINE
5
5DE
100
AcDbEntity
8
05
100
AcDbLine
62
3
6
CONTINUOUS
10
84.4761770000
20
195.6439780000
11
84.0387340000
21
190.6439780000
0
LINE
5
5DF
100
AcDbEntity
8
035
100
AcDbLine
62
3
6
CONTINUOUS
10
68.2761770000
20
223.3016790000
11
68.2761770000
21
207.1708700000
0
LINE
5
5E0
100
AcDbEntity
8
035
100
AcDbLine
62
3
6
CONTINUOUS
10
62.6761770000
20
223.3016790000
11
62.6761770000
21
207.1708700000
0
LINE
5
5E1
100
AcDbEntity
8
035
100
AcDbLine
62
3
6
CONTINUOUS
10
62.6761770000
20
217.9442890000
11
68.2761770000
21
217.9442890000
0
LINE
5
5E2
100
AcDbEntity
8
035
100
AcDbLine
62
3
6
CONTINUOUS
10
62.6761770000
20
216.2916170000
11
68.2761770000
21
216.2916170000
0
LINE
5
5E3
100
AcDbEntity
8
035
100
AcDbLine
62
3
6
CONTINUOUS
10
62.6761770000
20
214.8124350000
11
68.2761770000
21
214.8124350000
0
LINE
5
5E4
100
AcDbEntity
8
035
100
AcDbLine
62
3
6
CONTINUOUS
10
62.6761770000
20
212.3523860000
11
68.2761770000
21
212.3523860000
0
LINE
5
5E5
100
AcDbEntity
8
035
100
AcDbLine
62
3
6
CONTINUOUS
10
62.6761770000
20
210.8732040000
11
68.2761770000
21
210.8732040000
0
LINE
5
5E6
100
AcDbEntity
8
035
100
AcDbLine
62
3
6
CONTINUOUS
10
62.6761770000
20
208.4131550000
11
68.2761770000
21
208.4131550000
0
LINE
5
5E7
100
AcDbEntity
8
035
100
AcDbLine
62
3
6
CONTINUOUS
10
68.2761770000
20
240.3241650000
11
68.2761770000
21
227.4439780000
0
LINE
5
5E8
100
AcDbEntity
8
035
100
AcDbLine
62
3
6
CONTINUOUS
10
62.6761770000
20
227.4439780000
11
62.6761770000
21
240.3241650000
0
LINE
5
5E9
100
AcDbEntity
8
035
100
AcDbLine
62
3
6
CONTINUOUS
10
62.6761770000
20
229.6426410000
11
68.2761770000
21
229.6426410000
0
LINE
5
5EA
100
AcDbEntity
8
035
100
AcDbLine
62
3
6
CONTINUOUS
10
62.6761770000
20
228.8426410000
11
68.2761770000
21
228.8426410000
0
LINE
5
5EB
100
AcDbEntity
8
035
100
AcDbLine
62
3
6
CONTINUOUS
10
62.6761770000
20
233.9284900000
11
68.2761770000
21
233.9284900000
0
LINE
5
5EC
100
AcDbEntity
8
035
100
AcDbLine
62
3
6
CONTINUOUS
10
63.6761770000
20
241.3241650000
11
67.2761770000
21
241.3241650000
0
LINE
5
5ED
100
AcDbEntity
8
035
100
AcDbLine
62
3
6
CONTINUOUS
10
62.6761770000
20
241.3241650000
11
68.2761770000
21
241.3241650000
0
LINE
5
5EE
100
AcDbEntity
8
05
100
AcDbLine
62
4
6
CONTINUOUS
10
5.0000000000
20
16.0000000000
11
72.0000000000
21
16.0000000000
0
LINE
5
5EF
100
AcDbEntity
8
05
100
AcDbLine
62
4
6
CONTINUOUS
10
5.0000000000
20
21.0000000000
11
72.0000000000
21
21.0000000000
0
LINE
5
5F0
100
AcDbEntity
8
05
100
AcDbLine
62
4
6
CONTINUOUS
10
5.0000000000
20
26.0000000000
11
72.0000000000
21
26.0000000000
0
LINE
5
5F1
100
AcDbEntity
8
05
100
AcDbLine
62
4
6
CONTINUOUS
10
5.0000000000
20
31.0000000000
11
72.0000000000
21
31.0000000000
0
LINE
5
5F2
100
AcDbEntity
8
05
100
AcDbLine
62
4
6
CONTINUOUS
10
5.0000000000
20
36.0000000000
11
72.0000000000
21
36.0000000000
0
LINE
5
5F3
100
AcDbEntity
8
05
100
AcDbLine
62
4
6
CONTINUOUS
10
5.0000000000
20
41.0000000000
11
72.0000000000
21
41.0000000000
0
LINE
5
5F4
100
AcDbEntity
8
05
100
AcDbLine
62
4
6
CONTINUOUS
10
5.0000000000
20
46.0000000000
11
72.0000000000
21
46.0000000000
0
LINE
5
5F5
100
AcDbEntity
8
05
100
AcDbLine
62
4
6
CONTINUOUS
10
110.9116940000
20
10.6550740000
11
110.9496920000
21
10.6930720000
0
LINE
5
5F6
100
AcDbEntity
8
05
100
AcDbLine
62
4
6
CONTINUOUS
10
110.5868920000
20
8.2089520000
11
110.5962100000
21
8.2182700000
0
LINE
5
5F7
100
AcDbEntity
8
025
100
AcDbLine
62
4
6
CONTINUOUS
10
133.0408970000
20
79.6439780000
11
143.8932280000
21
79.6439780000
0
LINE
5
5F8
100
AcDbEntity
8
025
100
AcDbLine
62
4
6
CONTINUOUS
10
132.4787340000
20
81.6439780000
11
143.8932280000
21
81.6439780000
0
LINE
5
5F9
100
AcDbEntity
8
025
100
AcDbLine
62
4
6
CONTINUOUS
10
132.4787340000
20
83.6439780000
11
143.8932280000
21
83.6439780000
0
LINE
5
5FA
100
AcDbEntity
8
025
100
AcDbLine
62
4
6
CONTINUOUS
10
131.9165710000
20
85.6439780000
11
143.8932280000
21
85.6439780000
0
LINE
5
5FB
100
AcDbEntity
8
025
100
AcDbLine
62
4
6
CONTINUOUS
10
131.9165710000
20
87.6439780000
11
143.8932280000
21
87.6439780000
0
LINE
5
5FC
100
AcDbEntity
8
025
100
AcDbLine
62
4
6
CONTINUOUS
10
131.3544070000
20
89.6439780000
11
143.8932280000
21
89.6439780000
0
LINE
5
5FD
100
AcDbEntity
8
025
100
AcDbLine
62
4
6
CONTINUOUS
10
131.3544070000
20
91.6439770000
11
143.8932280000
21
91.6439770000
0
LINE
5
5FE
100
AcDbEntity
8
025
100
AcDbLine
62
4
6
CONTINUOUS
10
130.7922440000
20
93.6439770000
11
143.8932280000
21
93.6439770000
0
LINE
5
5FF
100
AcDbEntity
8
025
100
AcDbLine
62
4
6
CONTINUOUS
10
130.7922440000
20
95.6439770000
11
143.8932280000
21
95.6439770000
0
LINE
5
600
100
AcDbEntity
8
025
100
AcDbLine
62
4
6
CONTINUOUS
10
130.2300810000
20
97.6439770000
11
143.8932280000
21
97.6439770000
0
LINE
5
601
100
AcDbEntity
8
025
100
AcDbLine
62
4
6
CONTINUOUS
10
130.2300810000
20
99.6439770000
11
143.8932280000
21
99.6439770000
0
LINE
5
602
100
AcDbEntity
8
025
100
AcDbLine
62
4
6
CONTINUOUS
10
129.6679170000
20
101.6439770000
11
143.8932280000
21
101.6439770000
0
LINE
5
603
100
AcDbEntity
8
025
100
AcDbLine
62
4
6
CONTINUOUS
10
129.6679170000
20
103.6439770000
11
143.8932280000
21
103.6439770000
0
LINE
5
604
100
AcDbEntity
8
025
100
AcDbLine
62
4
6
CONTINUOUS
10
129.1057600000
20
105.6439770000
11
143.8932280000
21
105.6439770000
0
LINE
5
605
100
AcDbEntity
8
025
100
AcDbLine
62
4
6
CONTINUOUS
10
155.3077220000
20
83.6439780000
11
143.8932280000
21
83.6439780000
0
LINE
5
606
100
AcDbEntity
8
025
100
AcDbLine
62
4
6
CONTINUOUS
10
155.3077220000
20
81.6439780000
11
143.8932280000
21
81.6439780000
0
LINE
5
607
100
AcDbEntity
8
025
100
AcDbLine
62
4
6
CONTINUOUS
10
154.7455590000
20
79.6439780000
11
143.8932280000
21
79.6439780000
0
LINE
5
608
100
AcDbEntity
8
025
100
AcDbLine
62
4
6
CONTINUOUS
10
158.6806960000
20
105.6439770000
11
143.8932280000
21
105.6439770000
0
LINE
5
609
100
AcDbEntity
8
025
100
AcDbLine
62
4
6
CONTINUOUS
10
158.1185390000
20
103.6439770000
11
143.8932280000
21
103.6439770000
0
LINE
5
60A
100
AcDbEntity
8
025
100
AcDbLine
62
4
6
CONTINUOUS
10
158.1185390000
20
101.6439770000
11
143.8932280000
21
101.6439770000
0
LINE
5
60B
100
AcDbEntity
8
025
100
AcDbLine
62
4
6
CONTINUOUS
10
157.5563750000
20
99.6439770000
11
143.8932280000
21
99.6439770000
0
LINE
5
60C
100
AcDbEntity
8
025
100
AcDbLine
62
4
6
CONTINUOUS
10
157.5563750000
20
97.6439770000
11
143.8932280000
21
97.6439770000
0
LINE
5
60D
100
AcDbEntity
8
025
100
AcDbLine
62
4
6
CONTINUOUS
10
156.9942120000
20
95.6439770000
11
143.8932280000
21
95.6439770000
0
LINE
5
60E
100
AcDbEntity
8
025
100
AcDbLine
62
4
6
CONTINUOUS
10
156.9942120000
20
93.6439770000
11
143.8932280000
21
93.6439770000
0
LINE
5
60F
100
AcDbEntity
8
025
100
AcDbLine
62
4
6
CONTINUOUS
10
156.4320490000
20
91.6439770000
11
143.8932280000
21
91.6439770000
0
LINE
5
610
100
AcDbEntity
8
025
100
AcDbLine
62
4
6
CONTINUOUS
10
156.4320490000
20
89.6439780000
11
143.8932280000
21
89.6439780000
0
LINE
5
611
100
AcDbEntity
8
025
100
AcDbLine
62
4
6
CONTINUOUS
10
155.8698850000
20
87.6439780000
11
143.8932280000
21
87.6439780000
0
LINE
5
612
100
AcDbEntity
8
025
100
AcDbLine
62
4
6
CONTINUOUS
10
155.8698850000
20
85.6439780000
11
143.8932280000
21
85.6439780000
0
LINE
5
613
100
AcDbEntity
8
025
100
AcDbLine
62
4
6
CONTINUOUS
10
54.6238470000
20
79.6439780000
11
65.4761770000
21
79.6439780000
0
LINE
5
614
100
AcDbEntity
8
025
100
AcDbLine
62
4
6
CONTINUOUS
10
54.0616830000
20
81.6439780000
11
65.4761770000
21
81.6439780000
0
LINE
5
615
100
AcDbEntity
8
025
100
AcDbLine
62
4
6
CONTINUOUS
10
54.0616830000
20
83.6439780000
11
65.4761770000
21
83.6439780000
0
LINE
5
616
100
AcDbEntity
8
025
100
AcDbLine
62
4
6
CONTINUOUS
10
53.4995200000
20
85.6439780000
11
65.4761770000
21
85.6439780000
0
LINE
5
617
100
AcDbEntity
8
025
100
AcDbLine
62
4
6
CONTINUOUS
10
53.4995200000
20
87.6439780000
11
65.4761770000
21
87.6439780000
0
LINE
5
618
100
AcDbEntity
8
025
100
AcDbLine
62
4
6
CONTINUOUS
10
52.9373570000
20
89.6439780000
11
65.4761770000
21
89.6439780000
0
LINE
5
619
100
AcDbEntity
8
025
100
AcDbLine
62
4
6
CONTINUOUS
10
52.9373570000
20
91.6439770000
11
65.4761770000
21
91.6439770000
0
LINE
5
61A
100
AcDbEntity
8
025
100
AcDbLine
62
4
6
CONTINUOUS
10
52.3751930000
20
93.6439770000
11
65.4761770000
21
93.6439770000
0
LINE
5
61B
100
AcDbEntity
8
025
100
AcDbLine
62
4
6
CONTINUOUS
10
52.3751930000
20
95.6439770000
11
65.4761770000
21
95.6439770000
0
LINE
5
61C
100
AcDbEntity
8
025
100
AcDbLine
62
4
6
CONTINUOUS
10
51.8130300000
20
97.6439770000
11
65.4761770000
21
97.6439770000
0
LINE
5
61D
100
AcDbEntity
8
025
100
AcDbLine
62
4
6
CONTINUOUS
10
51.8130300000
20
99.6439770000
11
65.4761770000
21
99.6439770000
0
LINE
5
61E
100
AcDbEntity
8
025
100
AcDbLine
62
4
6
CONTINUOUS
10
51.2508670000
20
101.6439770000
11
65.4761770000
21
101.6439770000
0
LINE
5
61F
100
AcDbEntity
8
025
100
AcDbLine
62
4
6
CONTINUOUS
10
51.2508670000
20
103.6439770000
11
65.4761770000
21
103.6439770000
0
LINE
5
620
100
AcDbEntity
8
025
100
AcDbLine
62
4
6
CONTINUOUS
10
50.6887090000
20
105.6439770000
11
65.4761770000
21
105.6439770000
0
LINE
5
621
100
AcDbEntity
8
025
100
AcDbLine
62
4
6
CONTINUOUS
10
76.8906710000
20
83.6439780000
11
65.4761770000
21
83.6439780000
0
LINE
5
622
100
AcDbEntity
8
025
100
AcDbLine
62
4
6
CONTINUOUS
10
76.8906710000
20
81.6439780000
11
65.4761770000
21
81.6439780000
0
LINE
5
623
100
AcDbEntity
8
025
100
AcDbLine
62
4
6
CONTINUOUS
10
76.3285080000
20
79.6439780000
11
65.4761770000
21
79.6439780000
0
LINE
5
624
100
AcDbEntity
8
025
100
AcDbLine
62
4
6
CONTINUOUS
10
80.2636450000
20
105.6439770000
11
65.4761770000
21
105.6439770000
0
LINE
5
625
100
AcDbEntity
8
025
100
AcDbLine
62
4
6
CONTINUOUS
10
79.7014880000
20
103.6439770000
11
65.4761770000
21
103.6439770000
0
LINE
5
626
100
AcDbEntity
8
025
100
AcDbLine
62
4
6
CONTINUOUS
10
79.7014880000
20
101.6439770000
11
65.4761770000
21
101.6439770000
0
LINE
5
627
100
AcDbEntity
8
025
100
AcDbLine
62
4
6
CONTINUOUS
10
79.1393250000
20
99.6439770000
11
65.4761770000
21
99.6439770000
0
LINE
5
628
100
AcDbEntity
8
025
100
AcDbLine
62
4
6
CONTINUOUS
10
79.1393250000
20
97.6439770000
11
65.4761770000
21
97.6439770000
0
LINE
5
629
100
AcDbEntity
8
025
100
AcDbLine
62
4
6
CONTINUOUS
10
78.5771610000
20
95.6439770000
11
65.4761770000
21
95.6439770000
0
LINE
5
62A
100
AcDbEntity
8
025
100
AcDbLine
62
4
6
CONTINUOUS
10
78.5771610000
20
93.6439770000
11
65.4761770000
21
93.6439770000
0
LINE
5
62B
100
AcDbEntity
8
025
100
AcDbLine
62
4
6
CONTINUOUS
10
78.0149980000
20
91.6439770000
11
65.4761770000
21
91.6439770000
0
LINE
5
62C
100
AcDbEntity
8
025
100
AcDbLine
62
4
6
CONTINUOUS
10
78.0149980000
20
89.6439780000
11
65.4761770000
21
89.6439780000
0
LINE
5
62D
100
AcDbEntity
8
025
100
AcDbLine
62
4
6
CONTINUOUS
10
77.4528350000
20
87.6439780000
11
65.4761770000
21
87.6439780000
0
LINE
5
62E
100
AcDbEntity
8
025
100
AcDbLine
62
4
6
CONTINUOUS
10
77.4528350000
20
85.6439780000
11
65.4761770000
21
85.6439780000
0
ARC
5
62F
100
AcDbEntity
8
025
100
AcDbCircle
62
4
6
CONTINUOUS
10
139.8932280000
20
179.3939780000
40
0.7500000000
100
AcDbArc
50
179.9998540000
51
0.0001030000
0
ARC
5
630
100
AcDbEntity
8
025
100
AcDbCircle
62
4
6
CONTINUOUS
10
139.8932280000
20
186.8939780000
40
0.7500000000
100
AcDbArc
50
359.9998540000
51
180.0001030000
0
LINE
5
631
100
AcDbEntity
8
025
100
AcDbLine
62
4
6
CONTINUOUS
10
164.7748960000
20
186.8939780000
11
164.7748960000
21
179.3939780000
0
LINE
5
632
100
AcDbEntity
8
025
100
AcDbLine
62
4
6
CONTINUOUS
10
163.6266570000
20
186.8939780000
11
163.6266570000
21
179.3939780000
0
LINE
5
633
100
AcDbEntity
8
025
100
AcDbLine
62
4
6
CONTINUOUS
10
161.5667480000
20
186.8939780000
11
161.5667480000
21
179.3939780000
0
LINE
5
634
100
AcDbEntity
8
025
100
AcDbLine
62
4
6
CONTINUOUS
10
162.8093030000
20
186.8939780000
11
162.8093030000
21
179.3939780000
0
LINE
5
635
100
AcDbEntity
8
025
100
AcDbLine
62
4
6
CONTINUOUS
10
160.5395770000
20
186.8939780000
11
160.5395770000
21
179.3939780000
0
LINE
5
636
100
AcDbEntity
8
025
100
AcDbLine
62
4
6
CONTINUOUS
10
159.2792110000
20
186.8939780000
11
159.2792110000
21
179.3939780000
0
LINE
5
637
100
AcDbEntity
8
025
100
AcDbLine
62
4
6
CONTINUOUS
10
156.8000330000
20
186.8939780000
11
156.8000330000
21
179.3939780000
0
LINE
5
638
100
AcDbEntity
8
025
100
AcDbLine
62
4
6
CONTINUOUS
10
158.1203070000
20
186.8939780000
11
158.1203070000
21
179.3939780000
0
ARC
5
639
100
AcDbEntity
8
025
100
AcDbCircle
62
4
6
CONTINUOUS
10
164.2007760000
20
179.2387200000
40
0.5947420000
100
AcDbArc
50
164.8674880000
51
15.1325680000
0
ARC
5
63A
100
AcDbEntity
8
025
100
AcDbCircle
62
4
6
CONTINUOUS
10
162.1880260000
20
179.2763020000
40
0.6323240000
100
AcDbArc
50
169.2745460000
51
10.7255050000
0
ARC
5
63B
100
AcDbEntity
8
025
100
AcDbCircle
62
4
6
CONTINUOUS
10
159.9093940000
20
179.2837320000
40
0.6397540000
100
AcDbArc
50
170.0768130000
51
9.9232370000
0
ARC
5
63C
100
AcDbEntity
8
025
100
AcDbCircle
62
4
6
CONTINUOUS
10
157.4601700000
20
179.3094990000
40
0.6655210000
100
AcDbArc
50
172.7072730000
51
7.2927760000
0
ARC
5
63D
100
AcDbEntity
8
025
100
AcDbCircle
62
4
6
CONTINUOUS
10
164.2007760000
20
187.0492350000
40
0.5947420000
100
AcDbArc
50
344.8674880000
51
195.1325680000
0
ARC
5
63E
100
AcDbEntity
8
025
100
AcDbCircle
62
4
6
CONTINUOUS
10
162.1880260000
20
187.0116540000
40
0.6323240000
100
AcDbArc
50
349.2745460000
51
190.7255050000
0
ARC
5
63F
100
AcDbEntity
8
025
100
AcDbCircle
62
4
6
CONTINUOUS
10
159.9093940000
20
187.0042240000
40
0.6397540000
100
AcDbArc
50
350.0768130000
51
189.9232370000
0
ARC
5
640
100
AcDbEntity
8
025
100
AcDbCircle
62
4
6
CONTINUOUS
10
157.4601700000
20
186.9784570000
40
0.6655210000
100
AcDbArc
50
352.7072730000
51
187.2927760000
0
LINE
5
641
100
AcDbEntity
8
025
100
AcDbLine
62
4
6
CONTINUOUS
10
140.6432280000
20
186.8939780000
11
140.6432280000
21
179.3939780000
0
LINE
5
642
100
AcDbEntity
8
025
100
AcDbLine
62
4
6
CONTINUOUS
10
155.3817680000
20
186.8939780000
11
155.3817680000
21
179.3939780000
0
LINE
5
643
100
AcDbEntity
8
025
100
AcDbLine
62
4
6
CONTINUOUS
10
154.0015850000
20
186.8939780000
11
154.0015850000
21
179.3939780000
0
LINE
5
644
100
AcDbEntity
8
025
100
AcDbLine
62
4
6
CONTINUOUS
10
150.8823150000
20
186.8939780000
11
150.8823150000
21
179.3939780000
0
LINE
5
645
100
AcDbEntity
8
025
100
AcDbLine
62
4
6
CONTINUOUS
10
152.2624980000
20
186.8939780000
11
152.2624980000
21
179.3939780000
0
LINE
5
646
100
AcDbEntity
8
025
100
AcDbLine
62
4
6
CONTINUOUS
10
148.6432280000
20
186.8939780000
11
148.6432280000
21
179.3939780000
0
LINE
5
647
100
AcDbEntity
8
025
100
AcDbLine
62
4
6
CONTINUOUS
10
147.1432280000
20
186.8939780000
11
147.1432280000
21
179.3939780000
0
LINE
5
648
100
AcDbEntity
8
025
100
AcDbLine
62
4
6
CONTINUOUS
10
143.1432280000
20
186.8939780000
11
143.1432280000
21
179.3939780000
0
LINE
5
649
100
AcDbEntity
8
025
100
AcDbLine
62
4
6
CONTINUOUS
10
144.6432280000
20
186.8939780000
11
144.6432280000
21
179.3939780000
0
ARC
5
64A
100
AcDbEntity
8
025
100
AcDbCircle
62
4
6
CONTINUOUS
10
147.8932280000
20
179.3939780000
40
0.7500000000
100
AcDbArc
50
179.9998970000
51
0.0001460000
0
ARC
5
64B
100
AcDbEntity
8
025
100
AcDbCircle
62
4
6
CONTINUOUS
10
154.6916760000
20
179.3364620000
40
0.6924840000
100
AcDbArc
50
175.2355830000
51
4.7644640000
0
ARC
5
64C
100
AcDbEntity
8
025
100
AcDbCircle
62
4
6
CONTINUOUS
10
151.5724060000
20
179.3364620000
40
0.6924840000
100
AcDbArc
50
175.2355830000
51
4.7644640000
0
ARC
5
64D
100
AcDbEntity
8
025
100
AcDbCircle
62
4
6
CONTINUOUS
10
143.8932280000
20
179.3939780000
40
0.7500000000
100
AcDbArc
50
179.9998970000
51
0.0001460000
0
ARC
5
64E
100
AcDbEntity
8
025
100
AcDbCircle
62
4
6
CONTINUOUS
10
147.8932280000
20
186.8939780000
40
0.7500000000
100
AcDbArc
50
359.9998970000
51
180.0001460000
0
ARC
5
64F
100
AcDbEntity
8
025
100
AcDbCircle
62
4
6
CONTINUOUS
10
154.6916760000
20
186.9514930000
40
0.6924840000
100
AcDbArc
50
355.2355830000
51
184.7644640000
0
ARC
5
650
100
AcDbEntity
8
025
100
AcDbCircle
62
4
6
CONTINUOUS
10
151.5724060000
20
186.9514930000
40
0.6924840000
100
AcDbArc
50
355.2355830000
51
184.7644640000
0
ARC
5
651
100
AcDbEntity
8
025
100
AcDbCircle
62
4
6
CONTINUOUS
10
143.8932280000
20
186.8939780000
40
0.7500000000
100
AcDbArc
50
359.9998970000
51
180.0001460000
0
ARC
5
652
100
AcDbEntity
8
025
100
AcDbCircle
62
4
6
CONTINUOUS
10
57.7969990000
20
186.9514930000
40
0.6924840000
100
AcDbArc
50
355.2355360000
51
184.7644170000
0
ARC
5
653
100
AcDbEntity
8
025
100
AcDbCircle
62
4
6
CONTINUOUS
10
57.7969990000
20
179.3364620000
40
0.6924840000
100
AcDbArc
50
175.2355360000
51
4.7644170000
0
LINE
5
654
100
AcDbEntity
8
025
100
AcDbLine
62
4
6
CONTINUOUS
10
139.1432280000
20
186.8939780000
11
139.1432280000
21
179.3939780000
0
LINE
5
655
100
AcDbEntity
8
025
100
AcDbLine
62
4
6
CONTINUOUS
10
135.5239580000
20
186.8939780000
11
135.5239580000
21
179.3939780000
0
LINE
5
656
100
AcDbEntity
8
025
100
AcDbLine
62
4
6
CONTINUOUS
10
136.9041410000
20
186.8939780000
11
136.9041410000
21
179.3939780000
0
LINE
5
657
100
AcDbEntity
8
025
100
AcDbLine
62
4
6
CONTINUOUS
10
133.7848710000
20
186.8939780000
11
133.7848710000
21
179.3939780000
0
LINE
5
658
100
AcDbEntity
8
025
100
AcDbLine
62
4
6
CONTINUOUS
10
132.4046880000
20
186.8939780000
11
132.4046880000
21
179.3939780000
0
LINE
5
659
100
AcDbEntity
8
025
100
AcDbLine
62
4
6
CONTINUOUS
10
129.6661480000
20
186.8939780000
11
129.6661480000
21
179.3939780000
0
LINE
5
65A
100
AcDbEntity
8
025
100
AcDbLine
62
4
6
CONTINUOUS
10
130.9864230000
20
186.8939780000
11
130.9864230000
21
179.3939780000
0
LINE
5
65B
100
AcDbEntity
8
025
100
AcDbLine
62
4
6
CONTINUOUS
10
128.5072450000
20
186.8939780000
11
128.5072450000
21
179.3939780000
0
LINE
5
65C
100
AcDbEntity
8
025
100
AcDbLine
62
4
6
CONTINUOUS
10
127.2468790000
20
186.8939780000
11
127.2468790000
21
179.3939780000
0
LINE
5
65D
100
AcDbEntity
8
025
100
AcDbLine
62
4
6
CONTINUOUS
10
124.9771530000
20
186.8939780000
11
124.9771530000
21
179.3939780000
0
LINE
5
65E
100
AcDbEntity
8
025
100
AcDbLine
62
4
6
CONTINUOUS
10
126.2197080000
20
186.8939780000
11
126.2197080000
21
179.3939780000
0
ARC
5
65F
100
AcDbEntity
8
025
100
AcDbCircle
62
4
6
CONTINUOUS
10
133.0947800000
20
179.3364620000
40
0.6924840000
100
AcDbArc
50
175.2355360000
51
4.7644170000
0
ARC
5
660
100
AcDbEntity
8
025
100
AcDbCircle
62
4
6
CONTINUOUS
10
136.2140500000
20
179.3364620000
40
0.6924840000
100
AcDbArc
50
175.2355360000
51
4.7644170000
0
ARC
5
661
100
AcDbEntity
8
025
100
AcDbCircle
62
4
6
CONTINUOUS
10
130.3262860000
20
179.3094990000
40
0.6655210000
100
AcDbArc
50
172.7072240000
51
7.2927270000
0
ARC
5
662
100
AcDbEntity
8
025
100
AcDbCircle
62
4
6
CONTINUOUS
10
127.8770610000
20
179.2837320000
40
0.6397540000
100
AcDbArc
50
170.0767630000
51
9.9231870000
0
ARC
5
663
100
AcDbEntity
8
025
100
AcDbCircle
62
4
6
CONTINUOUS
10
125.5984300000
20
179.2763020000
40
0.6323240000
100
AcDbArc
50
169.2744950000
51
10.7254540000
0
ARC
5
664
100
AcDbEntity
8
025
100
AcDbCircle
62
4
6
CONTINUOUS
10
133.0947800000
20
186.9514930000
40
0.6924840000
100
AcDbArc
50
355.2355360000
51
184.7644170000
0
ARC
5
665
100
AcDbEntity
8
025
100
AcDbCircle
62
4
6
CONTINUOUS
10
136.2140500000
20
186.9514930000
40
0.6924840000
100
AcDbArc
50
355.2355360000
51
184.7644170000
0
ARC
5
666
100
AcDbEntity
8
025
100
AcDbCircle
62
4
6
CONTINUOUS
10
130.3262860000
20
186.9784570000
40
0.6655210000
100
AcDbArc
50
352.7072240000
51
187.2927270000
0
ARC
5
667
100
AcDbEntity
8
025
100
AcDbCircle
62
4
6
CONTINUOUS
10
127.8770620000
20
187.0042240000
40
0.6397540000
100
AcDbArc
50
350.0767630000
51
189.9231870000
0
ARC
5
668
100
AcDbEntity
8
025
100
AcDbCircle
62
4
6
CONTINUOUS
10
125.5984300000
20
187.0116540000
40
0.6323240000
100
AcDbArc
50
349.2744950000
51
190.7254540000
0
LINE
5
669
100
AcDbEntity
8
025
100
AcDbLine
62
4
6
CONTINUOUS
10
121.2932280000
20
187.1439780000
11
121.2932280000
21
179.1439780000
0
LINE
5
66A
100
AcDbEntity
8
025
100
AcDbLine
62
4
6
CONTINUOUS
10
124.1597990000
20
186.8939780000
11
124.1597990000
21
179.3939780000
0
LINE
5
66B
100
AcDbEntity
8
025
100
AcDbLine
62
4
6
CONTINUOUS
10
123.0115600000
20
186.8939780000
11
123.0115600000
21
179.3939780000
0
LINE
5
66C
100
AcDbEntity
8
025
100
AcDbLine
62
4
6
CONTINUOUS
10
122.2266610000
20
178.8726270000
11
122.2266610000
21
187.4153290000
0
LINE
5
66D
100
AcDbEntity
8
025
100
AcDbLine
62
4
6
CONTINUOUS
10
121.2932280000
20
187.1439780000
11
121.2932280000
21
179.1439780000
0
ARC
5
66E
100
AcDbEntity
8
025
100
AcDbCircle
62
4
6
CONTINUOUS
10
123.5856800000
20
179.2387200000
40
0.5947420000
100
AcDbArc
50
164.8674320000
51
15.1325120000
0
ARC
5
66F
100
AcDbEntity
8
025
100
AcDbCircle
62
4
6
CONTINUOUS
10
121.8333700000
20
179.2608830000
40
0.5526490000
100
AcDbArc
50
192.2123910000
51
315.3691060000
0
ARC
5
670
100
AcDbEntity
8
025
100
AcDbCircle
62
4
6
CONTINUOUS
10
121.8333700000
20
187.0270720000
40
0.5526490000
100
AcDbArc
50
44.6308940000
51
167.7876090000
0
ARC
5
671
100
AcDbEntity
8
025
100
AcDbCircle
62
4
6
CONTINUOUS
10
123.5856800000
20
187.0492350000
40
0.5947420000
100
AcDbArc
50
344.8674320000
51
195.1325120000
0
LINE
5
672
100
AcDbEntity
8
025
100
AcDbLine
62
4
6
CONTINUOUS
10
43.8096110000
20
187.4153290000
11
43.8096110000
21
178.8726270000
0
LINE
5
673
100
AcDbEntity
8
025
100
AcDbLine
62
4
6
CONTINUOUS
10
42.8761770000
20
187.1439780000
11
42.8761770000
21
179.1439780000
0
LINE
5
674
100
AcDbEntity
8
025
100
AcDbLine
62
4
6
CONTINUOUS
10
43.8096110000
20
178.8726270000
11
43.8096110000
21
187.4153290000
0
LINE
5
675
100
AcDbEntity
8
025
100
AcDbLine
62
4
6
CONTINUOUS
10
42.8761770000
20
187.1439780000
11
42.8761770000
21
179.1439780000
0
LINE
5
676
100
AcDbEntity
8
025
100
AcDbLine
62
4
6
CONTINUOUS
10
57.1069070000
20
186.8939780000
11
57.1069070000
21
179.3939780000
0
LINE
5
677
100
AcDbEntity
8
025
100
AcDbLine
62
4
6
CONTINUOUS
10
55.3678210000
20
186.8939780000
11
55.3678210000
21
179.3939780000
0
LINE
5
678
100
AcDbEntity
8
025
100
AcDbLine
62
4
6
CONTINUOUS
10
53.9876380000
20
186.8939780000
11
53.9876380000
21
179.3939780000
0
LINE
5
679
100
AcDbEntity
8
025
100
AcDbLine
62
4
6
CONTINUOUS
10
51.2490980000
20
186.8939780000
11
51.2490980000
21
179.3939780000
0
LINE
5
67A
100
AcDbEntity
8
025
100
AcDbLine
62
4
6
CONTINUOUS
10
52.5693720000
20
186.8939780000
11
52.5693720000
21
179.3939780000
0
LINE
5
67B
100
AcDbEntity
8
025
100
AcDbLine
62
4
6
CONTINUOUS
10
50.0901940000
20
186.8939780000
11
50.0901940000
21
179.3939780000
0
LINE
5
67C
100
AcDbEntity
8
025
100
AcDbLine
62
4
6
CONTINUOUS
10
48.8298280000
20
186.8939780000
11
48.8298280000
21
179.3939780000
0
LINE
5
67D
100
AcDbEntity
8
025
100
AcDbLine
62
4
6
CONTINUOUS
10
46.5601020000
20
186.8939780000
11
46.5601020000
21
179.3939780000
0
LINE
5
67E
100
AcDbEntity
8
025
100
AcDbLine
62
4
6
CONTINUOUS
10
47.8026570000
20
186.8939780000
11
47.8026570000
21
179.3939780000
0
LINE
5
67F
100
AcDbEntity
8
025
100
AcDbLine
62
4
6
CONTINUOUS
10
45.7427480000
20
186.8939780000
11
45.7427480000
21
179.3939780000
0
LINE
5
680
100
AcDbEntity
8
025
100
AcDbLine
62
4
6
CONTINUOUS
10
44.5945100000
20
186.8939780000
11
44.5945100000
21
179.3939780000
0
ARC
5
681
100
AcDbEntity
8
025
100
AcDbCircle
62
4
6
CONTINUOUS
10
49.4600110000
20
179.2837320000
40
0.6397540000
100
AcDbArc
50
170.0767630000
51
9.9231870000
0
ARC
5
682
100
AcDbEntity
8
025
100
AcDbCircle
62
4
6
CONTINUOUS
10
47.1813800000
20
179.2763020000
40
0.6323240000
100
AcDbArc
50
169.2744950000
51
10.7254540000
0
ARC
5
683
100
AcDbEntity
8
025
100
AcDbCircle
62
4
6
CONTINUOUS
10
45.1686290000
20
179.2387200000
40
0.5947420000
100
AcDbArc
50
164.8674320000
51
15.1325120000
0
ARC
5
684
100
AcDbEntity
8
025
100
AcDbCircle
62
4
6
CONTINUOUS
10
43.4163200000
20
179.2608830000
40
0.5526490000
100
AcDbArc
50
192.2123910000
51
315.3691060000
0
ARC
5
685
100
AcDbEntity
8
025
100
AcDbCircle
62
4
6
CONTINUOUS
10
54.6777290000
20
179.3364620000
40
0.6924840000
100
AcDbArc
50
175.2355360000
51
4.7644170000
0
ARC
5
686
100
AcDbEntity
8
025
100
AcDbCircle
62
4
6
CONTINUOUS
10
51.9092350000
20
179.3094990000
40
0.6655210000
100
AcDbArc
50
172.7072240000
51
7.2927270000
0
ARC
5
687
100
AcDbEntity
8
025
100
AcDbCircle
62
4
6
CONTINUOUS
10
49.4600110000
20
187.0042240000
40
0.6397540000
100
AcDbArc
50
350.0767630000
51
189.9231870000
0
ARC
5
688
100
AcDbEntity
8
025
100
AcDbCircle
62
4
6
CONTINUOUS
10
45.1686290000
20
187.0492350000
40
0.5947420000
100
AcDbArc
50
344.8674320000
51
195.1325120000
0
ARC
5
689
100
AcDbEntity
8
025
100
AcDbCircle
62
4
6
CONTINUOUS
10
43.4163200000
20
187.0270720000
40
0.5526490000
100
AcDbArc
50
44.6308940000
51
167.7876090000
0
ARC
5
68A
100
AcDbEntity
8
025
100
AcDbCircle
62
4
6
CONTINUOUS
10
47.1813800000
20
187.0116540000
40
0.6323240000
100
AcDbArc
50
349.2744950000
51
190.7254540000
0
ARC
5
68B
100
AcDbEntity
8
025
100
AcDbCircle
62
4
6
CONTINUOUS
10
51.9092350000
20
186.9784570000
40
0.6655210000
100
AcDbArc
50
352.7072240000
51
187.2927270000
0
ARC
5
68C
100
AcDbEntity
8
025
100
AcDbCircle
62
4
6
CONTINUOUS
10
54.6777290000
20
186.9514930000
40
0.6924840000
100
AcDbArc
50
355.2355360000
51
184.7644170000
0
ARC
5
68D
100
AcDbEntity
8
025
100
AcDbCircle
62
4
6
CONTINUOUS
10
73.1553560000
20
179.3364620000
40
0.6924840000
100
AcDbArc
50
175.2355830000
51
4.7644640000
0
ARC
5
68E
100
AcDbEntity
8
025
100
AcDbCircle
62
4
6
CONTINUOUS
10
73.1553560000
20
186.9514930000
40
0.6924840000
100
AcDbArc
50
355.2355830000
51
184.7644640000
0
LINE
5
68F
100
AcDbEntity
8
025
100
AcDbLine
62
4
6
CONTINUOUS
10
62.2261770000
20
186.8939780000
11
62.2261770000
21
179.3939780000
0
LINE
5
690
100
AcDbEntity
8
025
100
AcDbLine
62
4
6
CONTINUOUS
10
60.7261770000
20
186.8939780000
11
60.7261770000
21
179.3939780000
0
LINE
5
691
100
AcDbEntity
8
025
100
AcDbLine
62
4
6
CONTINUOUS
10
58.4870900000
20
186.8939780000
11
58.4870900000
21
179.3939780000
0
LINE
5
692
100
AcDbEntity
8
025
100
AcDbLine
62
4
6
CONTINUOUS
10
72.4652640000
20
186.8939780000
11
72.4652640000
21
179.3939780000
0
LINE
5
693
100
AcDbEntity
8
025
100
AcDbLine
62
4
6
CONTINUOUS
10
70.2261770000
20
186.8939780000
11
70.2261770000
21
179.3939780000
0
LINE
5
694
100
AcDbEntity
8
025
100
AcDbLine
62
4
6
CONTINUOUS
10
68.7261770000
20
186.8939780000
11
68.7261770000
21
179.3939780000
0
ARC
5
695
100
AcDbEntity
8
025
100
AcDbCircle
62
4
6
CONTINUOUS
10
61.4761770000
20
179.3939780000
40
0.7500000000
100
AcDbArc
50
179.9998540000
51
0.0001030000
0
ARC
5
696
100
AcDbEntity
8
025
100
AcDbCircle
62
4
6
CONTINUOUS
10
69.4761770000
20
179.3939780000
40
0.7500000000
100
AcDbArc
50
179.9998970000
51
0.0001460000
0
ARC
5
697
100
AcDbEntity
8
025
100
AcDbCircle
62
4
6
CONTINUOUS
10
61.4761770000
20
186.8939780000
40
0.7500000000
100
AcDbArc
50
359.9998540000
51
180.0001030000
0
ARC
5
698
100
AcDbEntity
8
025
100
AcDbCircle
62
4
6
CONTINUOUS
10
69.4761770000
20
186.8939780000
40
0.7500000000
100
AcDbArc
50
359.9998970000
51
180.0001460000
0
LINE
5
699
100
AcDbEntity
8
025
100
AcDbLine
62
4
6
CONTINUOUS
10
88.0761770000
20
187.1439780000
11
88.0761770000
21
179.1439780000
0
LINE
5
69A
100
AcDbEntity
8
025
100
AcDbLine
62
4
6
CONTINUOUS
10
87.1427440000
20
178.8726270000
11
87.1427440000
21
187.4153290000
0
LINE
5
69B
100
AcDbEntity
8
025
100
AcDbLine
62
4
6
CONTINUOUS
10
86.3578450000
20
186.8939780000
11
86.3578450000
21
179.3939780000
0
LINE
5
69C
100
AcDbEntity
8
025
100
AcDbLine
62
4
6
CONTINUOUS
10
85.2096060000
20
186.8939780000
11
85.2096060000
21
179.3939780000
0
LINE
5
69D
100
AcDbEntity
8
025
100
AcDbLine
62
4
6
CONTINUOUS
10
83.1496980000
20
186.8939780000
11
83.1496980000
21
179.3939780000
0
LINE
5
69E
100
AcDbEntity
8
025
100
AcDbLine
62
4
6
CONTINUOUS
10
84.3922520000
20
186.8939780000
11
84.3922520000
21
179.3939780000
0
LINE
5
69F
100
AcDbEntity
8
025
100
AcDbLine
62
4
6
CONTINUOUS
10
82.1225270000
20
186.8939780000
11
82.1225270000
21
179.3939780000
0
LINE
5
6A0
100
AcDbEntity
8
025
100
AcDbLine
62
4
6
CONTINUOUS
10
80.8621610000
20
186.8939780000
11
80.8621610000
21
179.3939780000
0
LINE
5
6A1
100
AcDbEntity
8
025
100
AcDbLine
62
4
6
CONTINUOUS
10
78.3829820000
20
186.8939780000
11
78.3829820000
21
179.3939780000
0
LINE
5
6A2
100
AcDbEntity
8
025
100
AcDbLine
62
4
6
CONTINUOUS
10
79.7032570000
20
186.8939780000
11
79.7032570000
21
179.3939780000
0
LINE
5
6A3
100
AcDbEntity
8
025
100
AcDbLine
62
4
6
CONTINUOUS
10
76.9647170000
20
186.8939780000
11
76.9647170000
21
179.3939780000
0
LINE
5
6A4
100
AcDbEntity
8
025
100
AcDbLine
62
4
6
CONTINUOUS
10
75.5845340000
20
186.8939780000
11
75.5845340000
21
179.3939780000
0
LINE
5
6A5
100
AcDbEntity
8
025
100
AcDbLine
62
4
6
CONTINUOUS
10
73.8454470000
20
186.8939780000
11
73.8454470000
21
179.3939780000
0
LINE
5
6A6
100
AcDbEntity
8
025
100
AcDbLine
62
4
6
CONTINUOUS
10
88.0761770000
20
187.1439780000
11
88.0761770000
21
179.1439780000
0
ARC
5
6A7
100
AcDbEntity
8
025
100
AcDbCircle
62
4
6
CONTINUOUS
10
81.4923440000
20
179.2837320000
40
0.6397540000
100
AcDbArc
50
170.0768130000
51
9.9232370000
0
ARC
5
6A8
100
AcDbEntity
8
025
100
AcDbCircle
62
4
6
CONTINUOUS
10
79.0431200000
20
179.3094990000
40
0.6655210000
100
AcDbArc
50
172.7072730000
51
7.2927760000
0
ARC
5
6A9
100
AcDbEntity
8
025
100
AcDbCircle
62
4
6
CONTINUOUS
10
76.2746260000
20
179.3364620000
40
0.6924840000
100
AcDbArc
50
175.2355830000
51
4.7644640000
0
ARC
5
6AA
100
AcDbEntity
8
025
100
AcDbCircle
62
4
6
CONTINUOUS
10
85.7837260000
20
179.2387200000
40
0.5947420000
100
AcDbArc
50
164.8674880000
51
15.1325680000
0
ARC
5
6AB
100
AcDbEntity
8
025
100
AcDbCircle
62
4
6
CONTINUOUS
10
83.7709750000
20
179.2763020000
40
0.6323240000
100
AcDbArc
50
169.2745460000
51
10.7255050000
0
ARC
5
6AC
100
AcDbEntity
8
025
100
AcDbCircle
62
4
6
CONTINUOUS
10
87.5360350000
20
179.2608830000
40
0.5526490000
100
AcDbArc
50
224.6308940000
51
347.7876090000
0
ARC
5
6AD
100
AcDbEntity
8
025
100
AcDbCircle
62
4
6
CONTINUOUS
10
81.4923440000
20
187.0042240000
40
0.6397540000
100
AcDbArc
50
350.0768130000
51
189.9232370000
0
ARC
5
6AE
100
AcDbEntity
8
025
100
AcDbCircle
62
4
6
CONTINUOUS
10
76.2746260000
20
186.9514930000
40
0.6924840000
100
AcDbArc
50
355.2355830000
51
184.7644640000
0
ARC
5
6AF
100
AcDbEntity
8
025
100
AcDbCircle
62
4
6
CONTINUOUS
10
79.0431200000
20
186.9784570000
40
0.6655210000
100
AcDbArc
50
352.7072730000
51
187.2927760000
0
ARC
5
6B0
100
AcDbEntity
8
025
100
AcDbCircle
62
4
6
CONTINUOUS
10
85.7837260000
20
187.0492350000
40
0.5947420000
100
AcDbArc
50
344.8674880000
51
195.1325680000
0
ARC
5
6B1
100
AcDbEntity
8
025
100
AcDbCircle
62
4
6
CONTINUOUS
10
83.7709750000
20
187.0116540000
40
0.6323240000
100
AcDbArc
50
349.2745460000
51
190.7255050000
0
ARC
5
6B2
100
AcDbEntity
8
025
100
AcDbCircle
62
4
6
CONTINUOUS
10
87.5360350000
20
187.0270720000
40
0.5526490000
100
AcDbArc
50
12.2123910000
51
135.3691060000
0
LINE
5
6B3
100
AcDbEntity
8
0
100
AcDbLine
62
4
6
CONTINUOUS
10
162.8932280000
20
205.5721110000
11
162.8932280000
21
206.4607130000
0
LINE
5
6B4
100
AcDbEntity
8
0
100
AcDbLine
62
4
6
CONTINUOUS
10
124.8932280000
20
224.1512640000
11
124.8932280000
21
267.2941870000
0
LINE
5
6B5
100
AcDbEntity
8
0
100
AcDbLine
62
4
6
CONTINUOUS
10
159.3932280000
20
266.4941870000
11
128.3932280000
21
266.4941870000
0
LINE
5
6B6
100
AcDbEntity
8
0
100
AcDbLine
62
4
6
CONTINUOUS
10
159.3932280000
20
265.9108540000
11
162.8932280000
21
266.4941870000
0
LINE
5
6B7
100
AcDbEntity
8
0
100
AcDbLine
62
4
6
CONTINUOUS
10
162.8932280000
20
266.4941870000
11
159.3932280000
21
267.0775200000
0
LINE
5
6B8
100
AcDbEntity
8
0
100
AcDbLine
62
4
6
CONTINUOUS
10
159.3932280000
20
267.0775200000
11
159.3932280000
21
265.9108540000
0
SOLID
5
6B9
100
AcDbEntity
8
0
100
AcDbTrace
62
4
6
CONTINUOUS
10
162.8932280000
20
266.4941870000
11
159.3932280000
21
267.0775200000
12
159.3932280000
22
265.9108540000
13
159.3932280000
23
265.9108540000
0
LINE
5
6BA
100
AcDbEntity
8
0
100
AcDbLine
62
4
6
CONTINUOUS
10
128.3932280000
20
265.9108540000
11
124.8932280000
21
266.4941870000
0
LINE
5
6BB
100
AcDbEntity
8
0
100
AcDbLine
62
4
6
CONTINUOUS
10
124.8932280000
20
266.4941870000
11
128.3932280000
21
267.0775200000
0
LINE
5
6BC
100
AcDbEntity
8
0
100
AcDbLine
62
4
6
CONTINUOUS
10
128.3932280000
20
267.0775200000
11
128.3932280000
21
265.9108540000
0
SOLID
5
6BD
100
AcDbEntity
8
0
100
AcDbTrace
62
4
6
CONTINUOUS
10
124.8932280000
20
266.4941870000
11
128.3932280000
21
265.9108540000
12
128.3932280000
22
267.0775200000
13
128.3932280000
23
267.0775200000
0
LINE
5
6BE
100
AcDbEntity
8
0
100
AcDbLine
62
4
6
CONTINUOUS
10
162.8932280000
20
224.1512640000
11
162.8932280000
21
267.2941870000
0
LINE
5
6BF
100
AcDbEntity
8
0
100
AcDbLine
62
4
6
CONTINUOUS
10
151.8133660000
20
71.6439780000
11
182.9434660000
21
71.6439780000
0
LINE
5
6C0
100
AcDbEntity
8
0
100
AcDbLine
62
4
6
CONTINUOUS
10
159.2842070000
20
251.6439780000
11
161.9079210000
21
251.6439780000
0
LINE
5
6C1
100
AcDbEntity
8
0
100
AcDbLine
62
4
6
CONTINUOUS
10
182.1434660000
20
75.1439780000
11
182.1434660000
21
248.1439780000
0
LINE
5
6C2
100
AcDbEntity
8
0
100
AcDbLine
62
4
6
CONTINUOUS
10
181.5601330000
20
75.1439780000
11
182.1434660000
21
71.6439780000
0
LINE
5
6C3
100
AcDbEntity
8
0
100
AcDbLine
62
4
6
CONTINUOUS
10
182.1434660000
20
71.6439780000
11
182.7268000000
21
75.1439780000
0
LINE
5
6C4
100
AcDbEntity
8
0
100
AcDbLine
62
4
6
CONTINUOUS
10
182.7268000000
20
75.1439780000
11
181.5601330000
21
75.1439780000
0
SOLID
5
6C5
100
AcDbEntity
8
0
100
AcDbTrace
62
4
6
CONTINUOUS
10
182.7268000000
20
75.1439779200
11
181.5601330000
21
75.1439779200
12
182.1434660000
22
71.6439780000
13
182.1434660000
23
71.6439780000
0
LINE
5
6C6
100
AcDbEntity
8
0
100
AcDbLine
62
4
6
CONTINUOUS
10
181.5601330000
20
248.1439780000
11
182.1434660000
21
251.6439780000
0
LINE
5
6C7
100
AcDbEntity
8
0
100
AcDbLine
62
4
6
CONTINUOUS
10
182.1434660000
20
251.6439780000
11
182.7268000000
21
248.1439780000
0
LINE
5
6C8
100
AcDbEntity
8
0
100
AcDbLine
62
4
6
CONTINUOUS
10
182.7268000000
20
248.1439780000
11
181.5601330000
21
248.1439780000
0
SOLID
5
6C9
100
AcDbEntity
8
0
100
AcDbTrace
62
4
6
CONTINUOUS
10
181.5601330000
20
248.1439780160
11
182.7268000000
21
248.1439780160
12
182.1434660000
22
251.6439780000
13
182.1434660000
23
251.6439780000
0
LINE
5
6CA
100
AcDbEntity
8
0
100
AcDbLine
62
4
6
CONTINUOUS
10
164.0943500000
20
251.6439780000
11
182.9434660000
21
251.6439780000
0
LINE
5
6CB
100
AcDbEntity
8
025
100
AcDbLine
62
4
6
CONTINUOUS
10
83.2761770000
20
225.4439780000
11
47.9761770000
21
225.4439780000
0
TEXT
5
6CC
100
AcDbEntity
8
05
100
AcDbText
62
4
6
CONTINUOUS
10
155.0000000000
20
11.0000000000
40
1.5000000000
1
Zeichn. Nr.
51
15.0000000000
72
5
11
166.1785714286
21
11.0000000000
100
AcDbText
0
TEXT
5
6CD
100
AcDbEntity
8
05
100
AcDbText
62
4
6
CONTINUOUS
10
155.0000000000
20
28.0000000000
40
1.5000000000
1
Ersetzt durch:         Blatt
51
15.0000000000
72
5
11
184.1428571429
21
28.0000000000
100
AcDbText
0
TEXT
5
6CE
100
AcDbEntity
8
05
100
AcDbText
62
4
6
CONTINUOUS
10
155.0000000000
20
43.0000000000
40
1.5000000000
1
Gezeichnet
51
15.0000000000
72
5
11
165.2142857143
21
43.0000000000
100
AcDbText
0
TEXT
5
6CF
100
AcDbEntity
8
05
100
AcDbText
62
4
6
CONTINUOUS
10
155.0000000000
20
32.0000000000
40
1.5000000000
1
Gesehen
51
15.0000000000
72
5
11
162.6071428571
21
32.0000000000
100
AcDbText
0
TEXT
5
6D0
100
AcDbEntity
8
05
100
AcDbText
62
4
6
CONTINUOUS
10
174.0000000000
20
47.0000000000
40
1.5000000000
1
Datum     Name
51
15.0000000000
72
5
11
190.3571428571
21
47.0000000000
100
AcDbText
0
TEXT
5
6D1
100
AcDbEntity
8
05
100
AcDbText
62
4
6
CONTINUOUS
10
114.0000000000
20
47.0000000000
40
1.5000000000
1
Werkstoff:      Massstab:
51
15.0000000000
72
5
11
140.5714285714
21
47.0000000000
100
AcDbText
0
TEXT
5
6D2
100
AcDbEntity
8
05
100
AcDbText
62
4
6
CONTINUOUS
10
73.0000000000
20
28.0000000000
40
1.5000000000
1
Benennung:
51
15.0000000000
72
5
11
83.2857142857
21
28.0000000000
100
AcDbText
0
TEXT
5
6D3
100
AcDbEntity
8
05
100
AcDbText
62
4
6
CONTINUOUS
10
73.0000000000
20
44.0000000000
40
1.5000000000
1
*)Lieferant darf ohne 
51
15.0000000000
72
5
11
95.1428571429
21
44.0000000000
100
AcDbText
0
TEXT
5
6D4
100
AcDbEntity
8
05
100
AcDbText
62
4
6
CONTINUOUS
10
73.0000000000
20
41.5000000000
40
1.5000000000
1
 Ruecksprache nicht 
51
15.0000000000
72
5
11
93.9285714286
21
41.5000000000
100
AcDbText
0
TEXT
5
6D5
100
AcDbEntity
8
05
100
AcDbText
62
4
6
CONTINUOUS
10
73.0000000000
20
39.0000000000
40
1.5000000000
1
 geaendert werden
51
15.0000000000
72
5
11
91.4285714286
21
39.0000000000
100
AcDbText
0
TEXT
5
6D6
100
AcDbEntity
8
05
100
AcDbText
62
4
6
CONTINUOUS
10
73.0000000000
20
35.0000000000
40
1.5000000000
1
Zeichnung urheberrechtlich
51
15.0000000000
72
5
11
99.3214285714
21
35.0000000000
100
AcDbText
0
TEXT
5
6D7
100
AcDbEntity
8
05
100
AcDbText
62
4
6
CONTINUOUS
10
73.0000000000
20
32.5000000000
40
1.5000000000
1
geschuetzt (DIN 34) (C)
51
15.0000000000
72
5
11
96.2857142857
21
32.5000000000
100
AcDbText
0
TEXT
5
6D8
100
AcDbEntity
8
05
100
AcDbText
62
4
6
CONTINUOUS
10
155.0000000000
20
37.0000000000
40
1.5000000000
1
Geprueft
51
15.0000000000
72
5
11
163.1428571429
21
37.0000000000
100
AcDbText
0
TEXT
5
6D9
100
AcDbEntity
8
05
100
AcDbText
62
4
6
CONTINUOUS
10
155.0000000000
20
20.0000000000
40
1.5000000000
1
Ersatz fuer:           von  Blatt
51
15.0000000000
72
5
11
190.0357142857
21
20.0000000000
100
AcDbText
0
TEXT
5
6DA
100
AcDbEntity
8
05
100
AcDbText
62
4
6
CONTINUOUS
10
8.0000000000
20
6.0000000000
40
1.5000000000
1
Ind.  Aenderung             Datum   
51
15.0000000000
72
5
11
48.6785714286
21
6.0000000000
100
AcDbText
0
TEXT
5
6DB
100
AcDbEntity
8
05
100
AcDbText
62
4
6
CONTINUOUS
10
48.6785714286
20
6.0000000000
40
1.5000000000
1
 Name
51
15.0000000000
72
5
11
54.5714285714
21
6.0000000000
100
AcDbText
0
TEXT
5
6DC
100
AcDbEntity
8
035
100
AcDbText
62
4
6
CONTINUOUS
10
127.4230740000
20
8.2646360000
40
2.4848480000
1
FL-9494 SCHAAN
51
15.0000000000
72
5
11
154.5197498095
21
8.2646360000
100
AcDbText
0
TEXT
5
6DD
100
AcDbEntity
8
05
100
AcDbText
62
4
6
CONTINUOUS
10
189.8928571429
20
42.0000000000
40
2.5000000000
1
Battlogg
72
5
11
203.1071428571
21
42.0000000000
100
AcDbText
0
TEXT
5
6DE
100
AcDbEntity
8
05
100
AcDbText
62
4
6
CONTINUOUS
10
173.4464285714
20
42.0000000000
40
2.5000000000
1
10.06.92
51
15.0000000000
72
5
11
187.5535714286
21
42.0000000000
100
AcDbText
0
TEXT
5
6DF
100
AcDbEntity
8
05
100
AcDbText
62
2
6
CONTINUOUS
10
101.2738095238
20
17.5000000000
40
5.0000000000
1
NC3FXS
51
15.0000000000
72
5
11
124.7261904762
21
17.5000000000
100
AcDbText
0
TEXT
5
6E0
100
AcDbEntity
8
05
100
AcDbText
62
3
6
CONTINUOUS
10
105.3762096667
20
26.0821910000
40
3.5000000000
1
FXS Type
51
15.0000000000
72
5
11
126.5428763333
21
26.0821910000
100
AcDbText
0
TEXT
5
6E1
100
AcDbEntity
8
05
100
AcDbText
62
3
6
CONTINUOUS
10
167.4497810000
20
6.9765410000
40
3.5000000000
1
3102 St 08 09
51
15.0000000000
72
5
11
201.4497810000
21
6.9765410000
100
AcDbText
0
TEXT
5
6E2
100
AcDbEntity
8
05
100
AcDbText
62
2
6
CONTINUOUS
10
140.1482807143
20
39.6560560000
40
5.0000000000
1
2:1
51
15.0000000000
72
5
11
148.7197092857
21
39.6560560000
100
AcDbText
0
TEXT
5
6E3
100
AcDbEntity
8
0
100
AcDbText
62
3
6
CONTINUOUS
10
124.9348946667
20
267.4941870000
40
3.5000000000
1
%%c19.00 [0.748"]
72
5
11
162.8515613333
21
267.4941870000
100
AcDbText
0
TEXT
5
6E4
100
AcDbEntity
8
0
100
AcDbText
62
3
6
CONTINUOUS
10
181.0460820000
20
128.6439780000
40
3.5000000000
1
88.00-90.00 [3.465"-3.543"]
50
90.0000000000
72
5
11
181.0460820000
21
194.6439780000
100
AcDbText
0
ENDSEC
0
SECTION
2
OBJECTS
0
DICTIONARY
5
6E5
100
AcDbDictionary
3
ACAD_GROUP
350
6E6
3
ACAD_MLINESTYLE
350
6E7
0
DICTIONARY
5
6E6
102
{ACAD_REACTORS
330
6E5
102
}
100
AcDbDictionary
0
DICTIONARY
5
6E7
102
{ACAD_REACTORS
330
6E5
102
}
100
AcDbDictionary
3
STANDARD
350
6E8
0
MLINESTYLE
5
6E8
102
{ACAD_REACTORS
330
6E7
102
}
100
AcDbMlineStyle
2
STANDARD
70
0
3

62
256
51
90.0
52
90.0
71
2
49
0.5
62
256
6
BYLAYER
49
-0.5
62
256
6
BYLAYER
0
ENDSEC
0
EOF
